Login or Register to remove this ad.

Gaster's Theme (Undertale) Guitar Tab

Submitted: Apr 05, 2017 by johnbie (Last updated: Apr 05, 2017)

5
Average: 5 (1 vote)
Download | No audio :(
Game: Undertale
Composer(s): Toby Fox
Style: Arrangement, Fingerstyle, Transcription

AutoScroll: Slow | Medium | Fast
Gaster's Theme
UNDERTALE
Song by Toby Fox
Arranged by John Lee
Capo 5



     E  E  E  E  E  E  E  E     E  E  E  E  E  E  E  E     E  E  E  E  E  E  E  E   
E||--------------------------|--------------------------|--------------------------|
B||--------1-----------1-----|--------1-----------1-----|--------0-----------0-----|
G||--------------------------|--------------------------|--------------------------|
D||--1--2-----2--1--2-----2--|--1--2-----2--1--2-----2--|--0--1-----1--0--1-----1--|
A||--------------------------|--------------------------|--------------------------|
D||--------------------------|--------------------------|--------------------------|


  E  E  E  E  E  E  E  E     E  E  E  E  E  E  E  E     E  E  E  E  E  E  E  E     E  E  E  E  E  E  E  E   
--------------------------|--------------------------|--------------------------|--------------------------|
--------0-----------0-----|--------1-----------1-----|--------1-----------1-----|--------0-----------0-----|
--------------------------|--------------------------|--------------------------|--------------------------|
--0--1-----1--0--1-----1--|--1--2-----2--1--2-----2--|--1--2-----2--1--2-----2--|--0--1-----1--0--1-----1--|
--------------------------|--------3-----------3-----|--------3-----------3-----|--------2-----------2-----|
--------------------------|--1-----------1-----------|--1-----------1-----------|--0-----------0-----------|


  E  E  E  E  E  E  E  E     E  E  E  E  E  E  E  E     E  E  E  E  E  E  E  E     E  E  E  E  E  E  E  E   
--------------------------|--------------------------|--------------------------|--------------------------|
--------0-----------0-----|--------1-----------1-----|--------1-----------1-----|--------0-----------0-----|
--------------------------|--------------------------|--------------------------|--------------------------|
--0--1-----1--0--1-----1--|--1--2-----2--1--2-----2--|--1--2-----2--1--2-----2--|--0--1-----1--0--1-----1--|
--------2-----------2-----|--------3-----------3-----|--------3-----------3-----|--------2-----------2-----|
--0-----------0-----------|--1-----------1-----------|--1-----------1-----------|--0-----------0-----------|


  E  E  E  E  E  E  E  E     E  E  E  E  E  E  E  E     E  E  E  E  E  E  E  E     E  E  E  E  E  E  E  E   
--------------------------|--------------------------|--------------------------|--------------------------|
--------0-----------0-----|--------1-----------1-----|--------1-----------1-----|--------0-----------0-----|
--------------------------|--------------------------|--------------------------|--------------------------|
--0--1-----1--0--1-----1--|--1--2-----2--1--2-----2--|--1--2-----2--1--2-----2--|--0--1-----1--0--1-----1--|
--------2-----------2-----|--------3-----------3-----|--------3-----------3-----|--------2-----------2-----|
--0-----------0-----------|--1-----------1-----------|--1-----------1-----------|--0-----------0-----------|


  E  E  E  E  E  E  E  E     E  E  E  E  E  E  E  E     E  E  E  E  E  E  E  E     E  E  E  E  E  E  E  E   
--------------------------|--------------------------|--------------------------|--------------------------|
--------0-----------0-----|--------1-----------1-----|--------1-----------1-----|--------0-----------0-----|
--------------------------|--------------------------|--------------------------|--------------------------|
--0--1-----1--0--1-----1--|--1--2-----2--1--2-----2--|--1--2-----2--1--2-----2--|--0--1-----1--0--1-----1--|
--------2-----------2-----|--------3-----------3-----|--------3-----------3-----|--------2-----------2-----|
--0-----------0-----------|--1-----------1-----------|--1-----------1-----------|--0-----------0-----------|


  E  E  E  E  E  E  E  E     E  E  E  E  E  E  E  E     E  E  E  E  E  E  E  E     E  E  E  E  E  E  E  E   
--------------------------|--------------------------|--------------------------|--------------------------|
--------0-----------0-----|--------1-----------1-----|--------1-----------1-----|--------0-----------0-----|
--------------------------|--------------------------|--------------------------|--------------------------|
--0--1-----1--0--1-----1--|--1--2-----2--1--2-----2--|--1--2-----2--1--2-----2--|--0--1-----1--0--1-----1--|
--------2-----------2-----|--------2-----------2-----|--------2-----------2-----|--------0-----------0-----|
--0-----------0-----------|--1-----------1-----------|--1-----------1-----------|--0-----------0-----------|


  E  E  E  E  E  E  E  E     E  E  E  E  E  E  E  E     E  E  E  E  E  E  E  E           
--------------------------|--------------------------|--------------------------|-------|
--------0-----------0-----|--------------------------|--------------------------|-------|
--------------------------|--------------------------|--------------------------|-------|
--0--1-----1--0--1-----1--|--------------------------|--------------------------|-------|
--------0-----------0-----|-----3--2--0-----3--2--0--|-----3--2--0-----3--2--0--|-------|
--0-----------0-----------|--1-----------1-----------|--1-----------1-----------|-------|


  Q    Q    Q    Q       Q    Q    Q    Q       Q    Q    Q    Q       Q    Q    Q    Q     
----------------------|----------------------|----------------------|----------------------|
------------1---------|------------1---------|------------1---------|------------1---------|
----------------------|----------------------|----------------------|----------------------|
--1----2---------2----|--1----2---------2----|--1----2---------2----|--1----2---------2----|
----------------------|----------------------|----------------------|----------------------|
----------------------|----------------------|----------------------|----------------------|


  Q    Q    Q    Q       Q    Q    Q    Q       Q    Q    Q    Q       Q    Q    Q    Q     
----------------------|----------------------|----------------------|----------------------|
------------0---------|------------0---------|------------0---------|------------0---------|
----------------------|----------------------|----------------------|----------------------|
--0----1---------1----|--0----1---------1----|--0----1---------1----|--0----1---------1----|
----------------------|----------------------|----------------------|----------------------|
----------------------|----------------------|----------------------|----------------------|


  E  E  E  E  E  E  E  E     E  E  E  E  E  E  E  E     E  E  E  E  E  E  E  E     E  E  E  E  E  E  E  E   
--------------------------|--------------------------|--------------------------|--------------------------|
--------1-----------1-----|--------1-----------1-----|--------0-----------0-----|--------0-----------0-----|
--------------------------|--------------------------|--------------------------|--------------------------|
--1--2-----2--1--2-----2--|--1--2-----2--1--2-----2--|--0--1-----1--0--1-----1--|--0--1-----1--0--1-----1--|
--------------------------|--------------------------|--------------------------|--------------------------|
--------------------------|--------------------------|--------------------------|--------------------------|


  S S S S S S S S S S S S S S S S   
----------------------------------||
----------------------------------||
----------------------------------||
--1-1-1-1-1-1-1-1-1-1-1-1-1-1-1---||
----------------------------------||
--1-1-1-1-1-1-1-1-1-1-1-1-1-1-1---||




Duration Legend
---------------
W - whole
H - half
Q - quarter
E - 8th
S - 16th
Login or Register to remove this ad.