Ads

For the Fans (Undertale) Guitar Tab

Submitted: Nov 14, 2022 by JordanVS (Last updated: Nov 14, 2022)

5
Average: 5 (1 vote)
Download | Listen
Game: Undertale
Composer(s): Toby Fox
Style: Arrangement, Fingerstyle

AutoScroll: Slow | Medium | Fast
For the Fans
Undertale
Toby Fox
JordanVS

*Tuning: Half-Step Down (D# - G# - C# - F# - A# - d#)
Tempo: 50 ~ 4/4

Download Link: https://www.mediafire.com/file/71v31kwmlr39z6i/For_The_Fans_-_Undertale....

      ^                         ^                         ^                         ^          ^         
      E  E  Q    E  E  E  E     E  E  Q    E  E  E  E     E  E  Q    E  E  E  E     E  E  Q    H         
D#||-------------------------|-------------------------|-------------------------|----------------------|
A#||-----3--3-------------0--|--1-----3----------------|-----0--0----------------|--0--1-------3--------|
F#||--4----------------------|-----2-------------------|--0-------------------2--|--------2----2--------|
C#||-------------------5-----|-------------------3-----|-------------------2-----|-------------3--------|
G#||--5-------------5-----2--|--3-------------3-----0--|--2-------------2-----2--|--0-------------------|
D#||--3----------3-----------|--1----------1-----------|--0----------0-----------|--1-------------------|


   ^                                ^                             ^                        
   E   E   Q     E   E   E   E      E   E   Q    E   E   E  E     E  E  Q    E  E  E   E   
------10--10--------------------|---8------10------------------|-----7--7-----------------|
--12------------------------12--|------10----------------------|--8-------------------10--|
------------------------12------|-----------------------10-----|-------------------9------|
--12----------------12-------9--|--10---------------10------7--|--9-------------9------9--|
--10------------10--------------|---8------------8-------------|--7----------7------------|
--------------------------------|------------------------------|--------------------------|


               ^            ^                                ^                           
  E  E   Q     H            E   E   Q     E   E   E   E      E   E   Q    E   E   E  E   
--7--8--------10--------|------10--10--------------------|---8------10------------------|
--------10----10--------|--12------------------------12--|------10----------------------|
--------------10--------|------------------------12------|-----------------------10-----|
--7---------------------|--12----------------12-------9--|--10---------------10------7--|
--8---------------------|--10------------10--------------|---8------------8-------------|
------------------------|--------------------------------|------------------------------|


  ^                                                                                   
  E  E  Q    E  E  E   E     E  E   Q    E   E   E   E       E  E  E  E  E  E  E  E   
-----7--7-----------------|--7--8-----------------------||---------7--L--------------|
--8-------------------10--|--------10-------------------||------8--------8--L--7-----|
-------------------9------|---------------------10------||*--9--------9-----9-----7--|
--9-------------9------9--|--7--------------10------10--||*--------------------------|
--7----------7------------|--8-----------8--------------||---------------------------|
--------------------------|-----------------------------||---8-----------8-----------|


  E  E  E  E   E  E  E  E     E  E  E  E  E  E   E  E     E   E  E   E  E  E  E  E       W
--------7--L---------------|--------7-----L------------|-----------------------------||----||
-----8--------10--L--8--L--|-----7--------------10--L--|--8--10--7--10--8------------||----||
--8--------8------8-----8--|--7--------7--L--7---L--7--|----------------------------*||----||
---------------------------|---------------------------|------9--7---9-----9--7--9--*||----||
---------------------------|---------------------------|--7-------------7------------||--7-||
--8------------8-----------|--7-----------7------------|-----------------------------||----||




Duration Legend
---------------
W - whole
H - half
Q - quarter
E - 8th
S - 16th
T - 32nd
X - 64th
. - note dotted
|-n-|  - n-tuplets


Tablature Legend
----------------
L - tied note
x - dead note
g - grace note
(n) - ghost note
> - accentuded note
NH - natural harmonic
AH - artificial harmonic
TH - tapped harmonic
SH - semi harmonic
PH - pitch harmonic
h - hammer on
p - pull off
b - bend
~ - vibrato
W - wide vibrato
tr - trill
TP - tremolo picking
< - fade in
^ - brush up
v - brush down
Login or Register to remove this ad.