Ads

Finale (Undertale) Guitar Tab

Submitted: May 18, 2016 by johnbie

5
Average: 5 (5 votes)
Download | Listen
Game: Undertale
Composer(s): Toby Fox
Style: Arrangement, Fingerstyle

AutoScroll: Slow | Medium | Fast
Finale
Song By Toby Fox
Arranged By John Lee
Drop D Tuning


(The song is played right after Your Best Nightmare)

     Q    E  E  Q    Q       Q    E  E  Q    Q       Q    E  E  Q    Q     
E||-----------------------|-----------------------|------------------3----|
B||-------------0---------|----------0------------|-------------0---------|
G||--0----0--2-------0----|--2----2---------------|--0----0--2------------|
D||-----------------------|-------------4----0----|-----------------------|
A||-----------------------|-----------------------|-----------------------|
D||--2--------------------|--L--------------------|--4--------------------|


  Q    Q    Q    Q       Q    E  E  Q    Q       Q    E  E  Q    Q     
--2-------------------|-----------------------|-----------------------|
-------3----0---------|-------------0---------|----------0------------|
----------------------|--0----0--2-------0----|--2----2---------------|
--4--------------4----|-----------------------|-------------4----0----|
----------------------|-----------------------|-----------------------|
----------------------|--5--------------------|--L--------------------|


  Q    E  E  Q    Q       Q    Q    H              E  E  E  E  E  E  E  E   
------------------0----|-------2----0---------||---------------------------|
-------------0---------|--4----2----0---------||---------------0-----------|
--0----0---------------|--1------------------*||*--0-----0--2--------0-----|
----------7------------|---------------------*||*--------------------------|
-----------------------|----------------------||---0--0-----------0-----0--|
--6--------------------|--L-------------------||---------------------------|


  E  E  E  E  E  E  E  E     E  E  E  E  E  E  E  E     E  E  Q    E  E  E  E   
--------------------------|--------------------3-----|--2----------------------|
-----------0--------------|--------------0-----------|--------3----0-----------|
--2-----2-----------------|--0-----0--2--------------|-------------------------|
--------------4-----0-----|--------------------------|-------------------4-----|
--0--0-----------0-----0--|--2--2-----------2-----2--|--2--2----------2-----2--|
--------------------------|--------------------------|-------------------------|


  E  E  E  E  E  E  E  E     E  E  E  E  E  E  E  E   
--------------------------|--------------------------|
--------------0-----------|-----------0--------------|
--0-----0--2--------0-----|--2-----2-----------------|
--------------------------|--------------4-----0-----|
--3--3-----------3-----3--|--3--3-----------3-----3--|
--------------------------|--------------------------|


  E  E  E  E  E  E  E  E     Q    Q    H             E  E  Q    E  Q    E   
--------------------0-----|-------2----0---------||------------------------|
--------------0-----------|--4----2----0---------||------------------------|
--1-----1--2--------------|--1------------------*||------------------------|
--------------------------|---------------------*||-------------2----------|
--4--4-----------4-----4--|----------------------||--0--0--0-------0----0--|
--------------------------|----------------------||------------------------|


  E  E  Q    E  Q    E     E  E  Q    E  Q    E     E  E  Q    E  Q    E   
------------------------|------------------------|------------------------|
------------------------|------------------------|------------------------|
--0----------4----------|--2---------------------|------------------------|
------------------------|------------------------|--4----------0----------|
-----0--0-------0----0--|-----2--2----2--2----2--|-----2--2-------2----2--|
------------------------|------------------------|------------------------|


  E  E  Q    E  Q    E     E  E  Q    E  Q    E     E  E  Q    E  Q    E   
------------------------|------------------------|------------------------|
------------------------|------------------------|------------------------|
------------------------|------------------------|--2---------------------|
--2---------------------|--L---------------------|------------------------|
-----3--3----3--3----3--|--3--3--3----3--3----3--|-----4--4----4--4----4--|
------------------------|------------------------|------------------------|


  E  E  Q    E  Q    E     Q    Q    Q    Q       Q.     E  Q    Q     
------------------------|----------------------|----------------------|
------------------------|----------------------|------------0---------|
--L---------------------|----------------------|--0-------------------|
------------------------|------------2---------|----------------------|
--4--4--4----4--4----4--|------------0----2----|----------------------|
------------------------|--5----4--------------|--0------0-------5----|


  Q    Q    Q    Q       Q.     E  Q    Q       Q    Q    Q    Q     
----------------------|----------------------|----------------------|
--3-------------------|----------------------|----------------------|
----------------------|--2-------------------|--0-------------------|
----------------------|------------4---------|----------------------|
--2---------0----2----|-----------------0----|--3---------0----3----|
-------0--------------|--0------4------------|-------4--------------|


  Q.     Q.     Q       Q    E  E  Q     Q        H        E  E  E  E   
---------------------|--5----5--6--8----13----|--10--------8--8--8--8--|
---------------------|------------------------|------------------------|
--L------------------|------------------------|------------------------|
---------------------|------------------------|------------------------|
--L------L------L----|------------------------|------------------------|
--4------4------5----|--L---------------------|------------------------|

 Ending 
    Q    E  E  Q    Q       Q    E  E  Q    Q       Q    E  E  E  E  E  E   
|------------------------|-----------------------|-------------------------|
|--------------0---------|----------0------------|-------------0-----0--8--|
|*--0----0--2-------0----|--2----2---------------|--0----0--2-----0--------|
|*-----------------------|-------------4----0----|-------------------------|
|------------------------|-------------0---------|--2----------------------|
|---5---------------2----|--5--------------------|-------------------5-----|


  Q    Q    Q    Q       Q    E  E  Q    Q       Q    E  E  Q    Q     
----------------------|-------------0---------|-----------------------|
--7-------------------|----------3-------0----|----------0------------|
-------7---------7----|--0----0---------------|--2----2-----2----0----|
------------7---------|-----------------------|-----------------------|
----------------------|------------------3----|------------------3----|
--0--------------4----|--0--------------------|--2----------5---------|


  Q    E  E  Q    Q       H        Q    Q          Q    E  E  Q    Q     
-----------------------|----------------------||------------------------|
----------0------------|-----------0----------||--------------0---------|
--2----2-----2----0----|--2------------------*||*--0----0--2-------0----|
-----------------------|---------------------*||*-----------------------|
------------------3----|----------------2-----||------------------------|
--2--------------------|--1-------------------||---5---------------2----|


  Q    E  E  Q    Q       Q    E  E  E  E  E  E     Q    Q    Q    Q     
-----------------------|----------------------3--|--2-------------------|
----------0------------|-------------0-----0-----|-------3---------3----|
--2----2---------------|--0----0--2-----0--------|------------2---------|
-------------4----0----|-------------------------|----------------------|
-------------0---------|--2----------------------|----------------------|
--5--------------------|-------------------5-----|--0--------------4----|


  Q    E  E  Q    Q       Q    E  E  Q    Q       E  E  E  E  E  E  E  E   
--0----------0---------|-----------------------|--------------------------|
----------3-------0----|----------0------------|-----------0--3--0--------|
-------0---------------|--2----2-----2----0----|-----0--2-----------2--0--|
-----------------------|-----------------------|--2-----------------------|
------------------3----|------------------3----|--------------------------|
--0--------------------|--2----------5---------|--2-----------------------|


                                     Repeat Ending
  S S S S S S S S S S S S S S S S       Q    E  E  Q    Q     
-----------------------------------||------------------------|
------------------0-------0--------||--------------0---------|
--2-------2---------0-------0-----*||*--0----0--2-------0----|
----4-2-0---4-2-0-----1-------1---*||*-----------------------|
------------------------2-------2--||------------------------|
-----------------------------------||---5---------------2----|


  Q    E  E  Q    Q       Q    E  E  E  E  E  E     Q    Q    Q    Q     
-----------------------|-------------------------|----------------------|
----------0------------|-------------0-----0--8--|--7-------------------|
--2----2---------------|--0----0--2-----0--------|-------7---------7----|
-------------4----0----|-------------------------|------------7---------|
-------------0---------|--2----------------------|----------------------|
--5--------------------|-------------------5-----|--0--------------4----|


  Q    E  E  Q    Q       Q    E  E  Q    Q       Q    E  E  Q    Q     
-------------0---------|-----------------------|-----------------------|
----------3-------0----|----------0------------|----------0------------|
--0----0---------------|--2----2-----2----0----|--2----2-----2----0----|
-----------------------|-----------------------|-----------------------|
------------------3----|------------------3----|------------------3----|
--0--------------------|--2----------5---------|--2--------------------|


  H        Q    Q          Q    E  E  Q    Q       Q    E  E  Q    Q     
----------------------||------------------------|-----------------------|
-----------0----------||--------------0---------|----------0------------|
--2------------------*||*--0----0--2-------0----|--2----2---------------|
---------------------*||*-----------------------|-------------4----0----|
----------------2-----||------------------------|-------------0---------|
--1-------------------||---5---------------2----|--5--------------------|


  Q    E  E  E  E  E  E     Q    Q    Q    Q       Q    E  E  Q    Q     
----------------------3--|--2-------------------|--0----------0---------|
-------------0-----0-----|-------3---------3----|----------3-------0----|
--0----0--2-----0--------|------------2---------|-------0---------------|
-------------------------|----------------------|-----------------------|
--2----------------------|----------------------|------------------3----|
-------------------5-----|--0--------------4----|--0--------------------|


  Q    E  E  Q    Q       E  E  E  E  E  E  E  E   
-----------------------|--------------------------|
----------0------------|-----------0--3--0--------|
--2----2-----2----0----|-----0--2-----------2--0--|
-----------------------|--2-----------------------|
------------------3----|--------------------------|
--2----------5---------|--2-----------------------|


  S S S S S S S S S S S S S S S S             
-----------------------------------||-------||
------------------0-------0--------||-------||
--2-------2---------0-------0-----*||-------||
----4-2-0---4-2-0-----1-------1---*||-------||
------------------------2-------2--||-------||
-----------------------------------||-------||






Duration Legend
---------------
W - whole
H - half
Q - quarter
E - 8th
S - 16th
. - note dotted
|-n-|  - n-tuplets


Tablature Legend
----------------
L - tied note
Login or Register to remove this ad.