Fallen Down (Reprise) (Undertale) Bass/Guitar Tab

Submitted: Dec 06, 2015 by wolfrain64 (Last updated: Feb 26, 2016)

4.75
Average: 4.8 (4 votes)
Download | Listen
Game: Undertale
Composer(s): Toby Fox
Style: 2 or more instruments, Transcription

Click here for a video example.

AutoScroll: Slow | Medium | Fast
			Undertale - Fallen Down (reprise)

Song: Fallen Down (reprise)
game: Undertale
Composer: Toby Fox
Tabber: Wolfrain64
Date: 6/12/2015


guitar 1 melody

     S S S S S S S S S S S S    S S E  S S S S S S S S  
E||--2---2---2---2---2---2---|-------------------2-----|
B||----2---2---2---2---2---2-|--0---2----0-5-4-5---4---|
G||--------------------------|----2----2-------------4-|
D||--------------------------|-------------------------|
A||--------------------------|-------------------------|
E||--------------------------|-------------------------|

  S S S S S S S S S S S S    S S S S S S E  E  X  X  S.  
--2---2---2---2---2---3---|--2---2---0-2-0--------------|
--------------------------|----2---2--------3--2h-3p-2--|
----4---4---4---3---3---3-|-----------------------------|
--------------------------|-----------------------------|
--------------------------|-----------------------------|
--------------------------|-----------------------------|

guitar 2 rhythm

     S S S S S S S S S S S S    S S S S S S S S S S S S  
E||--------------------------|--------------------------|
B||--------------------------|--------------------------|
G||------2---2-------2---2---|--------------------------|
D||----4---4---4---4---4---4-|------4---4-------4---4---|
A||--5-----------5-----------|----6---6---6---6---6---6-|
E||--------------------------|--7-----------7-----------|

  S S S S S S S S S S S S    S S S S S S S S S S S S  
--------------------------|--------------------------|
--------------------------|--------------------------|
--------------------------|------2---2-------2---2---|
------0---0-------0---0---|----4---4---4---2---2---2-|
----2---2---2---1---1---1-|--5-----------4-----------|
--3-----------2-----------|--------------------------|

bass

    E     E.  E  S  Q     E     Q    E   Q.     
G||----|---------------------|------------------|
D||----|---------------------|------------------|
A||-4--|--5------------------|------------------|
D||----|------0--LS-7----11--|--9----LS--4------|

   E  S   E.   E  S E   T  T    Q.     E  E  E   
|----------------------------|------------------|
|----------------------------|------------------|
|----------------------------|---------------4--|
|--5--LS-12---12--L-8--10-LS-|--7------7--5-----|


Guitar 1 melody

   E  S S S S E  E  E     E.  S S S E  E  E   
|----------------------|---------------2--0--|
|--3------0-2-3--2--3--|------0--------------|
|-----0-2--------------|--2-----2-0----------|
|----------------------|------------4--------|
|----------------------|---------------------|
|----------------------|---------------------|

		       1st time              2nd time
  E  S S S S E  E  E     E.  S S S E  E  E     S S S S S S E  E  E     
----------------------|--2---3-2-0----0-----|--2---2---2---0--------|
--3------0-2-3--2--3--|------------3-----2--|----3---3---3----3--2--|
-----0-2--------------|---------------------|-----------------------|
----------------------|---------------------|-----------------------|
----------------------|---------------------|-----------------------|
----------------------|---------------------|-----------------------|

Guitar 2 rhythm

  S S S S S S S S S S S S    S S S S S S S S S S S S  
--------------------------|--------------------------|
--------0-----------2-----|----------------------2---|
------0---0-------2---2---|--------2-----------2---2-|
----0-------0---2-------2-|------4---4-------4-------|
--------------0-----------|----5-------5---4---------|
--3-----------------------|--5-----------2-----------|


  S S S S S S S S S S S S    S S S S S S S S S S S S  
--------------------------|--------------------------|
--------0-----------2-----|--------3-----------2-----|
------0---0-------2-------|------4---4-------2---2---|
----0-------0---2-------2-|----4-------4---4-------4-|
--------------0-------1---|--2-----------0-----------|
--3-----------------------|--------------------------|

Bass 

   Q    S S Q    S S    Q    S S Q    S S  
|--------------------|--------------------|
|--------------------|--------------------|
|-----------0----L-0-|--------------------|
|--5----L-5----------|--0----L-0-4----L-4-|


  Q    S S Q    S S    Q    S S Q    S S   
--------------------|--------------------|
--------------------|--------------------|
-----------0----L-0-|--2----L-2-0----L-0-|
--5----L-5----------|--------------------|


Guitar 1 melody

  E.  E.  Q.        E.  E.  Q.        E.  E.  Q    S S    E.  E.  Q.      
------5----------|------5----------|----------5----L-7-|--5--------------|
----------5------|--3--------------|------3------------|------5---3------|
--2--------------|----------2------|--0----------------|-----------------|
-----------------|-----------------|-------------------|-----------------|
-----------------|-----------------|-------------------|-----------------|
-----------------|-----------------|-------------------|-----------------|

                |-3-|                      |-3-|                           
  E.  E.  S S S T T T S S    E.  E.  S S S T T T S S    E.  E  S E.  E  S    E.  E  S Q.       
------5---------2-0-2---0-|------5-------0-2-0-2-0-5-|--2---3--2-0------0-|--2---3--7-5------|
----------5-3-5-------3---|--3---------3-------------|---------------3----|------------------|
--2-----------------------|----------2---------------|--------------------|------------------|
--------------------------|--------------------------|--------------------|------------------|
--------------------------|--------------------------|--------------------|------------------|
--------------------------|--------------------------|--------------------|------------------|

Guitar 2 rhythm

   S S S S S S S S S S S S    S S S S S S S S S S S S  
|----5-5---5-5---5-5---5-5-|--------------------------|
|----7-7---7-7---5-5---5-5-|----3-3---3-3---3-3---3-3-|
|--------------------------|----4-4---4-4---2-2---2-2-|
|--------------------------|--------------------------|
|--5-----5-----4-----4-----|--------------------------|
|--------------------------|--3-----3-----2-----2-----|

  S S S S S S S S S S S S    S S S S S S S S S S S S  
--------------------------|----------------0-0---0-0-|
----3-3---3-3---3-3---3-3-|----0-0---0-0---2-2---2-2-|
----4-4---4-4---2-2---2-2-|----0-0---0-0-------------|
--------------------------|--------------------------|
--------------------------|--------------0-----0-----|
--3-----3-----2-----2-----|--0-----0-----------------|


Guitar 1 melody

  E.  E  S E  S E  S    E.  E.  E  S E  S    E.  E  S E  S E  S  
------5--2-0----0--2-|------0---0---------|------5--2-0---------|
--------------3------|--2----------3-2--3-|--------------3-2--3-|
--4------------------|--------------------|--2------------------|
---------------------|--------------------|---------------------|
---------------------|--------------------|---------------------|
---------------------|--------------------|---------------------|


  E  T X  X  S S S Q.        E.  E  S E  S E  S    E.  E.  E  S E  S  
--0--L-7h-8h-9-8-7-5------|------5--2-0----0--2-|------0---0---------|
--------------------------|--------------3------|--2----------3-2--3-|
--------------------------|--4------------------|--------------------|
--------------------------|---------------------|--------------------|
--------------------------|---------------------|--------------------|
--------------------------|---------------------|--------------------|

Guitar 2 rhythm

   S S S S S S S S S S S S    S S S S S S S S S S S S  
|--------------------------|--------------------------|
|----3-3---3-3---3-3---3-3-|----2-2---2-2---2-2---2-2-|
|----4-4---4-4---4-4---4-4-|----2-2---2-2---2-2---2-2-|
|--------------------------|--------------------------|
|--------------------------|--------------------------|
|--3-----3-----3-----3-----|--2-----2-----2-----2-----|

  S S S S S S S S S S S S    S S S S S S S S S S S S 
----------------0-0---0-0-|----0-0---0-0---2-5---2-5-|
----0-0---0-0---2-2---2-2-|----2-2---2-2---3-7---3-7-|
----0-0---0-0-------------|--------------------------|
--------------------------|--------------------------|
--------------0-----0-----|--1-----1-----2-----0-----|
--0-----0-----------------|--------------------------|

Bass

  E.  E  S E.  E  S    E.  E  S E.  E  S    E.  E  S E.  E  S    E.  E  S E.  E  S 
--------------------|--------------------|--------------------|--------------------|
--------------------|--------------------|--------------------|--------------------|
--------------------|--------------------|-----------0---0--0-|--1---1--1-2---0--0-|
--5---5--5-5---5--5-|--4---4--4-4---4--4-|--2---2--2----------|--------------------|


Guitar 1 melody						
							                  4nd time
  E.  E.  Q.        E.  E.  Q.        E.  E.  Q    S S    E.  E.  Q.        E.  E.  E  S E  S  
------5----------|------5---2------|----------5----L-7-|--5--------------|--5-----------------|
----------5------|--3--------------|------2------------|------5----------|------5---5--3-2--3-|
--2--------------|-----------------|--2----------------|----------7------|--------------------|
-----------------|-----------------|-------------------|-----------------|--------------------|
-----------------|-----------------|-------------------|-----------------|--------------------|
-----------------|-----------------|-------------------|-----------------|--------------------|

Guitar 2 rhythm
		           			      4th time                     ^     rhythm end          
  S S S S S S S S S S S S    S S S S S S S S S S S S    S S S S S S S S S S S S    H.           
----------------0-0---0-0-|----------------2-2---2-2-|----------------2-2---2-2-|--5------------||
----3-3---3-3---2-2---2-2-|----3-3---3-3---3-3---3-3-|----3-3---3-3---3-3---2-2-|--3------------||
----4-4---4-4-------------|----2-2---2-2-------------|----2-2---2-2-------------|--2------------||
--------------------------|--------------------------|--------------------------|--0------------||
--------------0-----0-----|--------------2-----2-----|--------------2-----0-----|---------------||
--3-----3-----------------|--2-----2-----------------|--2-----2-----------------|---------------||

Bass

 E.  E  S E.  E  S    E.  E  S E.  E  S   
--------------------|--------------------|
--------------------|--------------------|
-----------0---0--0-|-----------2---2--2-|
--5---5--5----------|--4---4--4----------|


Guitar 1 melody

  E  S E  S E  S E  S    E  S E  S E  S E  S    E  S E  S E  S E  S  
--5----0---------0----|-------0--3-2--0------|--5----0---------0----|
-----3----3----3----3-|-----3-----------3----|-----3----3----3----3-|
------------1---------|--0-----------------2-|------------1---------|
--0-------------------|------------0---------|--0-------------------|
----------------------|----------------------|----------------------|
----------------------|----------------------|----------------------|


                                                  ^    melody end           
  E  S E  S E  S E  S    E  S E  S E  S E  T T    H.                  
-------0--3-2--0------|--5----0---------0--2-0-|---------------||
-----3-----------3----|-----3----3----3--------|--3------------||
--0-------------------|--0---------2-----------|--2------------||
------------0---------|------------------------|--0------------||
----------------------|------------------------|---------------||
----------------------|------------------------|---------------||

Bass
  								bass end
   Q.     Q.        Q.     Q.                         
|----------------|----------------|   |---------------|---------------||
|----------------|----------------|x2 |---------------|---------------||
|--5-------------|----------------|   |---------0-----|--5------------||
|---------6------|--5------0------|   |--5------------|---------------||


Duration Legend
---------------
W - whole
H - half
Q - quarter
E - 8th
S - 16th
T - 32nd
X - 64th
. - note dotted
|-n-|  - n-tuplets


Tablature Legend
----------------
L - tied note
x - dead note
g - grace note
(n) - ghost note
> - accentuded note
NH - natural harmonic
AH - artificial harmonic
TH - tapped harmonic
SH - semi harmonic
PH - pitch harmonic
h - hammer on
p - pull off
b - bend
br - bendRelease
pb - preBend
pbr - preBendRelease
brb - bendReleaseBend
\n/ - tremolo bar dip
\n - tremolo bar dive
-/n - tremolo bar Release up
/n\ - tremolo bar inverted dip
/n - tremolo bar return
-\n - tremolo bar Release down
S - shift slide
s - legato slide
/ -  slide into from below or out of upwards
\ -  slide into from above or out of downwards
~ - vibrato
W - wide vibrato
tr - trill
TP - tremolo picking
T - tapping
S - slap
P - pop
< - fade in
^ - brush up
v - brush down
Login or Register to remove this ad.

2 comments on Fallen Down (Reprise)

AMAZING

5

Thank you tabber for the wonderful tabs

Pretty Good!

4

Love it, though the ordering is a bit confusing, but maybe that's just on me. Also, "4nd"??? Which is the "4nd time", I've never seen this before. I think maybe you meant "4th time".