Ads

Fallen Down (Undertale) Guitar Tab

Submitted: Nov 12, 2019 by Kirill Chernov (Last updated: Nov 16, 2019)

5
Average: 5 (4 votes)
Download | Listen
Game: Undertale
Composer(s): Toby Fox
Style: Arrangement

This song is also called Toriel Theme

Click here for a video example.

AutoScroll: Slow | Medium | Fast
bpm = 120

  (x4)
    E   E   E   E   E   E   E   E   E   E   E   E     E   E   E   E   E   E   E   E   E   E   E   E     
E||-0-------0-------0-------0-------0-------0-------|-------------------------------------0-----------|
B||-----0-------0-------0-------0-------0-------0---|-0-----------------------3---2---3-------2-------|
G||-------------------------------------------------|-----0---2-------2---0-----------------------2---|
D||-------------------------------------------------|-------------------------------------------------|
A||-------------------------------------------------|-------------------------------------------------|
E||-------------------------------------------------|-------------------------------------------------|

   E   E   E   E   E   E   E   E   E   E   E   E     E   E   E   E   E   E   E   E   E   E   E   E   
E|-0-------0-------0-------0-------0-------1-------|-0-------0-----------0---------------------------||
B|-------------------------------------------------|-----1-------1---3-------3-------1-------0-------||
G|-----2-------2-------2-------1-------2-----------|-------------------------------------------------||
D|-------------------------------------------------|-------------------------------------------------||
A|-------------------------------------------------|-------------------------------------------------||
E|-------------------------------------------------|-------------------------------------------------||

   E   E   E   E   E   E   E   E   E   E   E   E     E   E   E   E   E   E   E   E   E   E   E   E   
E|-0-------0-------0-------0-------0-------0-------|-------------------------------------0-----------|
B|-----0-------0-------0-------0-------0-------0---|-0-----------------------3---2---3-------2-------|
G|---------0-------0---------------0-------0-------|-----0---2-------2---0-----------------------2---|
D|-----2-------2-------2-------2-------2-------2---|---------2-------2---------------2-------2-------|
A|-3-----------------------3-----------------------|-0---4-------4-------4---0---4-------4-------4---|
E|-------------------------------------------------|-------------------------------------------------|

   E   E   E   E   E   E   E   E   E   E   E   E     E   E   E   E   E   E   E   E   E   E   E   E   
E|-0-------0-------0-------0-------0-------1-------|-0-------0-----------0---------------------------|
B|-------------------------------------------------|-----1-------1---3-------3-------1-------0-------|
G|-----2-------2-------2-------1-------2-----------|---------0-------0---------------0-------0-------|
D|-------------------------------------------------|-----2-------2-------2-------2-------2-------2---|
A|-----0---3---0---3---0-------0---3---0---3---0---|-3-----------------------3-----------------------|
E|-1-----------------------1-----------------------|-------------------------------------------------|

   E   E   E   E   E   E   E   E   E   E   E   E     E   E   E   E   E   E   E   E   E   E   E   E 
E|-0-------0-------0-------0-------0-------0-------|-------------------------------------0-----------|
B|-----0-------0-------0-------0-------0-------0---|-0-----------------------3---2---3-------2-------|
G|---------0-------0---------------0-------0-------|-----0---2-------2---0-----------------------2---|
D|-----2-------2-------2-------2-------2-------2---|---------2-------2---------------2-------2-------|
A|-3-----------------------3-----------------------|-0---4-------4-------4---0---4-------4-------4---|
E|-------------------------------------------------|-------------------------------------------------|

   E   E   E   E   E   E   E   E   E   E   E   E     E   E   E   E   E   E   E   E   E   E   E   E 
E|-0-------0-------0-------0-------0-------1-------|-0-------0-----------0-----------0---------------|
B|-------------------------------------------------|-----1-------1---3-------0-L-0-----------0-------|
G|-----2-------2-------2-------1-------2-----------|---------0-------0---------------0-------0-------|
D|-------------------------------------------------|-----2-------2-------2-------2-------2-------2---|
A|-----0---3---0---3---0-------0---3---0---3---0---|-3-----------------------3-----------------------|
E|-1-----------------------1-----------------------|-------------------------------------------------|

   E   E   E   E   E   E   E   E   E   E   E   E     E   E   E   E   E   E   E   E   E   E   E   E 
E|-------------------------------------------------|---------------------------------0---------------|
B|-1-L-1---------------0---1-------0-------1-------|-----------------------------------------3-------|
G|-------------0---2-------------------------------|-0---L---0---2---0-------------------------------|
D|-3-------3-------3---2---0-------2---------------|---------------------3---2-------2-------0-------|
A|-----3-------3---------------2-----------0---2---|-----0-------0---------------2-------2-------3---|
E|-------------------------------------3-----------|-3-------3-------3---1---0-----------------------|

   E   E   E   E   E   E   E   E   E   E   E   E     E   E   E   E   E   E   E   E   E   E   E   E 
E|-------------------------------------------------|-0---L---0---1---0-------------------------------|
B|-1---L---1-----------0---1-------0-------1-------|-5-------------------3---1-------3-------0-------|
G|-------------0---2---------------------------0---|-------------------------5-----------------------|
D|---------2-------2---------------0-------2-------|-----2---0-----------2-------2---0-------0---2---|
A|-0---3-------3-------3-------2-------2-----------|-------------0---3-------------------2-----------|
E|-------------------------3-----------------------|-------------------------------------------------|

   E   E   E   E   E   E   E   E   E   E   E   E     E   E   E   E   E   E   E   E   E   E   E   E 
E|-------------------------------------------------|---------------------------------0---------------|
B|-1---L---1-----------0---1-------0-------1-------|-----------------------------------------3-------|
G|-------------0---2-------------------------------|-0---L---0---2---0-------------------------------|
D|-3-------3-------3---2---0-------2---------------|---------------------3---2-------2-------0-------|
A|-----3-------3---------------2-----------0---2---|-----0-------0---------------2-------2-------3---|
E|-------------------------------------3-----------|-3-------3-------3---1---0-----------------------|

   E   E   E   E   E   E   E   E   E   E   E   E     E   E   E   E   E   E   E   E   E   E   E   E 
E|-------------------------------------------------|-0-------0-----------0---------------------------|
B|-1---L---1-----------0---1-------0-------1-------|-----1-------1---3-------3-L-3---1-L-1---0-L-0---|
G|-------------0---2---------------------------0---|---------0-------0---------------0-------0-------|
D|---------2-------2---------------0-------2-------|-----2-------2-------2---------------------------|
A|-0---3-------3-------3-------2-------2-----------|-3-----------------------3-----------------------|
E|-------------------------3-----------------------|-------------------------------------------------|

   E   E   E   E   E   E   E   E   E   E   E   E     E   E   E   E   E   E   E   E   E   E   E   E 
E|-------------3---L---3---------------------------|-------------3---L---3---------------------------|
B|-1---L---1---------------3---L---3---------------|-1---L---1---------------------------------------|
G|-----0---0-------0---0-------0---0-------0---0---|-------------------------0---L---0---------------|
D|-------------------------------------------------|-----2---2-------2---2-------0---0-------0---0---|
A|-3-----------3-----------2-----------2-----------|-0-----------0-----------------------------------|
E|-------------------------------------------------|-------------------------3-----------3-----------|

   E   E   E   E   E   E   E   E   E   E   E   E     E   E   E   E   E   E   E   E   E   E   E   E 
E|-------------------------3---L---3-----------5---|-3---L---3---------------------------------------|
B|-------------1---L---1---------------------------|-------------3---L---3---1---L---1---------------|
G|-----0---0-------0---0-------0---0-------0---0---|-----0---0-------0---0-------5---5-------5---5---|
D|-5---L---5---------------2-----------2-----------|-------------------------5-----------5-----------|
A|-3-----------3-----------------------------------|-5-----------5-----------------------------------|
E|-------------------------------------------------|-------------------------------------------------|

   E   E   E   E   E   E   E   E   E   E   E   E     E   E   E   E   E   E   E   E   E   E   E   E 
E|-------------3---L---3---------------0-----------|-------------3---L---3---------------0-------3---|
B|-1---L---1---------------3---1---3-------1---3---|-1---L---1-------------------1---3-------3-------|
G|-----0---0-------0---0-------0---0-------0---0---|-------------------------0-----------------------|
D|-------------------------------------------------|-----2---2-------2---2-------0---0-------0---0---|
A|-3-----------3-----------2-----------2-----------|-0-----------0-----------------------------------|
E|-------------------------------------------------|-------------------------3-----------3-----------|

   E   E   E   E   E   E   E   E   E   E   E   E     E   E   E   E   E   E   E   E   E   E   E   E 
E|---------------------0---3---L---3-----------5---|-0---L---0-----------5---3-----L-----3-----------|
B|-------------1-----------------------1-----------|-------------3-L-3-------1-----------------------|
G|-----0---0-------0---0-------0---0-------0---0---|-0---0---0-------0---0-------5---5-------5---5---|
D|-5---L---5---------------2-----------2-----------|-------------------------5-----------5-----------|
A|-3-----------3-----------------------------------|-5-----------5-----------------------------------|
E|-------------------------------------------------|-------------------------------------------------|

   E   E   E   E   E   E   E   E   E   E   E   E     E   E   E   E   E   E   E   E   E   E   E   E 
E|-------------3-L-3---0---------------------------|-------------7---6---5---3---------L---------3---|
B|-------------------------3-L-3---1---0-L-0---1---|-3---L---3---------------------------------------|
G|-0---L---0---------------------------------------|-----0---0-------0---0-------0---0-------0---0---|
D|-5-----------------------5-----------------------|-2-----------------------2-----------------------|
A|-----3---3-------3---3-------3---3-------3---3---|-------------------------------------------------|
E|-3-----------3-----------3-----------3-----------|-0-----------0-----------0-----------0-----------|

   E   E   E   E   E   E   E   E   E   E   E   E     E   E   E   E   E   E   E   E   E   E   E   E 
E|-------------3-L-3---0-----------------------0---|-------------------------------------------------|
B|-------------------------3-L-3---1---3-L-3-------|-0---L---0---3---L---3---3-L-3---1---0-L-0---1---|
G|-2---L---2---------------0-----------------------|-0-----------------------2-----------------------|
D|-0-----------0---------------0---0-------0---0---|---------------------------------2---------------|
A|-0---0---0-------0---0---------------------------|-----2---2-------2---2---0---3-----------2---3---|
E|-------------------------3-----------3-----------|-3-----------3-----------------------3-----------|

   E   E   E   E   E   E   E   E   E   E   E   E     E   E   E   E   E   E   E   E   E   E   E   E 
E|-------------3-L-3---0---------------------------|-------------7---6---5---3---------L---------3---|
B|-------------------------3-L-3---1---0-L-0---1---|-3---L---3---------------------------------------|
G|-0---L---0---------------------------------------|-----0---0-------0---0-------0---0-------0---0---|
D|-5-----------------------5-----------------------|-2-----------------------2-----------------------|
A|-----3---3-------3---3-------3---3-------3---3---|-------------------------------------------------|
E|-3-----------3-----------3-----------3-----------|-0-----------0-----------0-----------0-----------|

   E   E   E   E   E   E   E   E   E   E   E   E     E   E   E   E   E   E   E   E   E   E   E   E 
E|-------------3-L-3---0-----------------------0---|-------------------------------------------------|
B|-------------------------3-L-3---1---3-L-3-------|-0---L---0---3---L---3---3-L-3---1---0-L-0---1---|
G|-2---L---2---------------0-----------------------|-0-----------------------2-----------------------|
D|-0-----------0---------------0---0-------0---0---|---------------------------------2---------------|
A|-0---0---0-------0---0---------------------------|-----2---2-------2---2---0---3-----------2---3---|
E|-------------------------3-----------3-----------|-3-----------3-----------------------3-----------|

   E   E   E   E   E   E   E   E   E   E   E   E     E   E   E   E   E   E   E   E   E   E   E   E 
E|-3-L-3-------------------------------------------|---------------------1---0-L-0-------------------|
B|---------1---3-L-3---1-----------1---3-L-3---1---|---------1---3-L-3---------------3---1-L-1-------|
G|-------------------------0-L-0-------------------|---------------------------------------------0---|
D|-------------------------------------------------|-3-L-3-------------------------------------------|
A|-3-----L-----3-----------------------------------|-------------------------3-----L-----3-----------|
E|-------------------------------------------------|-------------------------------------------------|

   E   E   E   E   E   E   E   E   E   E   E   E     E   E   E   E   E   E   E   E   E   E   E   E 
E|-3-L-3-------------------------------------------|---------------------1---0-L-0-------------------|
B|---------1---3-L-3---1-----------1---3-L-3---1---|---------1---3-L-3---------------3---1-L-1-------|
G|-------------------------0-L-0-------------------|-------------------------------------------------|
D|-------------------------------------------------|-3-L-3-------------------------------------------|
A|-3-----L-----3-----------------------------------|-------------------------3-----L-----3-----------|
E|-------------------------------------------------|-------------------------------------------------|

   E   E   E   E   E   E   E   E   E   E   E   S  S    H
E|-3-L-3---------------------------------------1--0--|--------------|
B|---------1---3-L-3---1-----------1---3-L-3---------|-1------------|
G|-0-----L-----0-----------0-L-0---------------------|--------------|
D|---------------------------------------------------|--------------|
A|---------------------------------------------------|-3------------|
E|---------------------------------------------------|--------------|
Login or Register to remove this ad.

2 comments on Fallen Down

Could you provide an

5

Could you provide an alternative link? Recently there have been more and more cases when I get "This XML file does not appear to have any style information associated with it. The document tree is shown below." when trying to download the file on some pages of the site, including this one.

Sure,

Sure, here:
https://yadi.sk/d/nZjmEnmw-pWS2Q
I have same problem that you have described. I'm a new one on this site, so.