Fallen Down (Undertale) Guitar Tab

Submitted: May 14, 2016 by Dao Jarlen

4.666665
Average: 4.7 (3 votes)
Download | Listen
Game: Undertale
Composer(s): Toby Fox
Style: Arrangement, Fingerstyle, Transcription

This song is also called Toriel's Theme

AutoScroll: Slow | Medium | Fast
Undertale - Fallen Down

Written by Toby Fox
Arranged by Josiah McDaniel
Transcribed by Goose
Slightly altered by Dao Jarlen
Significantly re-altered again by Dao Jarlen
With help from a MIDI by Mrshadowcat

Okay so here is the final say on this song, I think. After learning a new way to arrange I had to finish what I started. Enjoy!

Standard Tuning
(I think the song is actually slightly flat)
Capo 2

Tempo = 109
L - tied note


E |--0-----0-----0-------|--0-----0-----0-------|----------------------|
B |-----0-----0-----0----|-----0-----0-----0----|--------0L-0----------|
G |--------0-----0-------|--------0-----0-------|--2--0--------0--2----|
D |-----2-----2-----2----|-----2-----2-----2----|--------2-----2-------|
A |--3-------------------|--3-------------------|--0--4-----4-----4----|
E |----------------------|----------------------|----------------------|


-----------0----------|--0-----0-----0-------|
--3--2--3-----2-------|----------------------|
-----------------2----|-----2-----2-----2----|
--------2-----2-------|----------------------|
--0--4-----4-----4----|-----0--3--0--3--0----|
----------------------|--1-------------------|


--0-----------0-----------1L----1-------|
----------------------------------------|
--------1-----------1-------------------|
----------------------------------------|
--------------3-----------3-------------|
--1-----4-----------4-----------4L-4----|


--0-----------0-----------------0-------|
--------1-----------1-----3-------------|
--------------0-----------0L-0----------|
--------2-----------2-----------2L-2----|
--3-------------------------------------|
----------------------------------------|


----------------------------------------|--0-----0-----0-------|
--3L----3-----1L----1-----0L----0-------|-----0-----0-----0----|
--------------0-----------0-------------|--------0-----0-------|
--------0-----------0-----------0L-0----|-----2-----2-----2----|
--2-------------------------------------|--3-------------------|
----------------------------------------|----------------------|


--0-----0-----0-------|----------------------|-----------0----------|
-----0-----0-----0----|--------0L-0----------|--3--2--3-----2-------|
--------0-----0-------|--2--0--------0--2----|-----------------2----|
-----2-----2-----2----|--------2-----2-------|--------2-----2-------|
--3-------------------|--0--4-----4-----4----|--0--4-----4-----4----|
----------------------|----------------------|----------------------|


--0-----0-----0-------|--0-----------0-----------1L----1-------|
----------------------|----------------------------------------|
-----2-----2-----2----|--------1-----------1-------------------|
----------------------|----------------------------------------|
-----0--3--0--3--0----|--------------3-----------3-------------|
--1-------------------|--1-----4-----------4-----------4L-4----|


--0-----------0-----------------0-------|
--------1-----------1-----3-------------|
--------------0-----------0L-0----------|
--------2-----------2-----------2L-2----|
--3-------------------------------------|
----------------------------------------|


----------------------------------------|
--3L----3-----1L----1-----0L----0-------|
--------------0-----------0-------------|
--------0-----------0-----------0L-0----|
--2-------------------------------------|
----------------------------------------|


--0L----0L----0-------------------------|
----------------------------------------|
--------------------0L----0L-0L-0-------|
--------------2-----------2-------------|
--------2-----------2-----------2-------|
--------0-----3-----0-----3-----0-------|


--------------------------0L-0L-0-------|
--0L----0L----0L----0-------------------|
----------------------------------------|
--2-----------2-------------------------|
--------2-----------2-----------2-------|
--------0-----3-----0-----3-----0-------|


----------------------------------------|
--2L----2L----2L----2L----2L-2L-2-------|
----------------------------------------|
----------------------------------------|
--0-----------2L----2-----------0-------|
--------3-----0-----------3-------------|


----------------------------------------|
----------------------------------------|
--2L----2L----2L----2L----2L-2L-2-------|
--0-----------0-----2-------------------|
--------4-----------------4-----0-------|
--------------0-----------0-------------|


--------------------0L----0L-0L-0-------|
----------------------------------------|
--2L----2-----2-------------------------|
--2-----------2-----------2-------------|
--------3-----0-----------0-----3-------|
--------------------1-----------1-------|


--0L----0L----0-------------------------|
--------------------1L----1L-1L-1-------|
----------------------------------------|
--2-----------2-----------3L-3L-3-------|
--------3-----------3-------------------|
--------1-----4-----1-----4-----1-------|


----------------------------------------|
--1L----1L----1L----1L----1L-1L-1-------|
----------------------------------------|
--2-----------2-----------0-----2-------|
--------3-----------3-------------------|
--------0-----3-----0-----3-----0-------|


----------------------------------------|
--0-----3-----------3-----0L-0--3-------|
--------------2L----2-------------------|
--0L----0-------------------------------|
--------------3L----3-----2L-2L-2-------|
----------------------------------------|


--0L----0L----0-------------------------|
----------------------------------------|
--------------------0L----0L-0L-0-------|
--------------2-----------2-------------|
--------2-----------2-----------2-------|
--------0-----3-----0-----3-----0-------|


--------------------------0L-0L-0-------|
--0L----0L----0L----0-------------------|
----------------------------------------|
--2-----------2-------------------------|
--------2-----------2-----------2-------|
--------0-----3-----0-----3-----0-------|


----------------------------------------|
--2L----2L----2L----2L----2L-2L-2-------|
----------------------------------------|
----------------------------------------|
--0-----------2L----2-----------0-------|
--------3-----0-----------3-------------|


----------------------------------------|
----------------------------------------|
--2L----2L----2L----2L----2L-2L-2-------|
--0-----------0-----2-------------------|
--------4-----------------4-----0-------|
--------------0-----------0-------------|


--------------------0L----0L-0L-0-------|
----------------------------------------|
--2L----2-----2-------------------------|
--2-----------2-----------2-------------|
--------3-----0-----------0-----3-------|
--------------------1-----------1-------|


--0L----0L----0-------------------------|
--------------------1L----1L-1L-1-------|
----------------------------------------|
--2-----------2-----------3L-3L-3-------|
--------3-----------3-------------------|
--------1-----4-----1-----4-----1-------|


----------------------------------------|
--1L----1L----1L----1L----1L-1L-1L-1L---|
----------------------------------------|
--2-----------2-----------0-----2-------|
--------3-----------3-------------------|
--------0-----3-----0-----3-----0-------|


----------------------------------------|--0-----0-----0-------|
--1L----1L----1L----1-------------------|-----0-----0-----0----|
----------------------------------------|--------0-----0-------|
--------------2L----2-------------------|-----2-----2-----2----|
--2L----2-----------------2L-2L-2L-2----|--3-------------------|
--------0-----3-----0-----3-----0-------|----------------------|


--0-----0-----0-------|----------------------|-----------0----------|
-----0-----0-----0----|--------0L-0----------|--3--2--3-----2-------|
--------0-----0-------|--2--0--------0--2----|-----------------2----|
-----2-----2-----2----|--------2-----2-------|--------2-----2-------|
--3-------------------|--0--4-----4-----4----|--0--4-----4-----4----|
----------------------|----------------------|----------------------|


--0-----0-----0-------|--0-----------0-----------1L----1-------|
----------------------|----------------------------------------|
-----2-----2-----2----|--------1-----------1-------------------|
----------------------|----------------------------------------|
-----0--3--0--3--0----|--------------3-----------3-------------|
--1-------------------|--1-----4-----------4-----------4L-4----|


--0-----------0-----------------0-------|
--------1-----------1-----3-------------|
--------------0-----------0L-0----------|
--------2-----------2-----------2L-2----|
--3-------------------------------------|
----------------------------------------|


----------------------------------------|
--3L----3-----1L----1-----0L----0-------|
--------------0-----------0-------------|
--------0-----------0-----------0L-0----|
--2-------------------------------------|
----------------------------------------|


--0L----0L----0-------------------------|
----------------------------------------|
--------------------0L----0L-0L-0-------|
--------------2-----------2-------------|
--------2-----------2-----------2-------|
--------0-----3-----0-----3-----0-------|


--------------------------0L-0L-0-------|
--0L----0L----0L----0-------------------|
----------------------------------------|
--2-----------2-------------------------|
--------2-----------2-----------2-------|
--------0-----3-----0-----3-----0-------|


----------------------------------------|
--2L----2L----2L----2L----2L-2L-2-------|
----------------------------------------|
----------------------------------------|
--0-----------2L----2-----------0-------|
--------3-----0-----------3-------------|


----------------------------------------|
----------------------------------------|
--2L----2L----2L----2L----2L-2L-2-------|
--0-----------0-----2-------------------|
--------4-----------------4-----0-------|
--------------0-----------0-------------|


--------------------0L----0L-0L-0-------|
----------------------------------------|
--2L----2-----2-------------------------|
--2-----------2-----------2-------------|
--------3-----0-----------0-----3-------|
--------------------1-----------1-------|


--0L----0L----0-------------------------|
--------------------1L----1L-1L-1-------|
----------------------------------------|
--2-----------2-----------3L-3L-3-------|
--------3-----------3-------------------|
--------1-----4-----1-----4-----1-------|


----------------------------------------|
--1L----1L----1L----1L----1L-1L-1L-1L---|
----------------------------------------|
--2-----------2-----------0-----2-------|
--------3-----------3-------------------|
--------0-----3-----0-----3-----0-------|


----------------------------------------||
--1L----1L----1L----1-------------------||
----------------------------------------||
--------------2L----2-------------------||
--2L----2-----------------2L-2L-2L-2----||
--------0-----3-----0-----3-----0-------||
Login or Register to remove this ad.

2 comments on Fallen Down

The notation on this makes it

The notation on this makes it very confusing to read. The legato, specifically.

Good tab, but poor notation

4

The tab is pretty spot on, but the notation is more than a little confusing when you're asking us to hold a note. Or, at least, that's what I think you want. It's a stain on an otherwise great tab.