Login or Register to remove this ad.

Error Screen (Undertale) Guitar Tab

Submitted: Apr 05, 2017 by johnbie (Last updated: Apr 05, 2017)

5
Average: 5 (1 vote)
Download | No audio :(
Game: Undertale
Composer(s): Toby Fox
Style: Arrangement, Fingerstyle, Transcription

AutoScroll: Slow | Medium | Fast
Error Screen
Song by Toby Fox
Arranged by John Lee


     E.  E.  E  E.  E.  E     E.  E.  E  E.  E.  E     E.  E.  E  E.  E.  E     E.  E.  E  E.  E.  E   
E||------------------------|------------------------|------------------------|------------------------|
B||------------------------|------------------------|------------------------|------------------------|
G||------------------------|------------------------|------------------------|------------------------|
D||------------------------|------------------------|------------------------|------------------------|
A||--0----------0----------|--0----------0----------|--0----------0----------|--0----------0----------|
E||------0---3------0---3--|------0---3------0---3--|------0---3------0---3--|------0---3------0---3--|


  E  S S E  E  E  S E.  E     E  S S E  E  E  S E.  E     E  S S E  E  E  S E.  S S  
---------------------------|---------------------------|----------------------------|
-----2---2--2--3--2--------|------------------0--------|-----2---2--2--3--2---------|
--------------------2------|-----0---0--0--0----2------|--------------------2---0---|
---------------------------|---------------------------|--------------------------4-|
--0------------0-----------|--0------------0-----------|--0------------0------------|
-------0----3-------0---3--|-------0----3-------0---3--|-------0----3-------0---3---|


  E  S S S S E  E.  S E  E     E.  E.  E  E.  E.  E     E.  E.  E  E.  E.  E     E.  E.  E  E.  E.  E   
----------------------5-----|------------------------|------------------------|------------------------|
-----------0----------------|------------------------|------------------------|------------------------|
--0--0---0------2-----------|------------------------|------------------------|------------------------|
-------4--------------------|------------------------|------------------------|------------------------|
--0-------------0-----------|--0----------0----------|--0----------0----------|--0----------0----------|
-------0-----3------0----3--|------0---3------0---3--|------0---3------0---3--|------0---3------0---3--|


  E.  E.  E  E.  E.  E     E  S S E  E  E  S E.  E     E  S S E  E  E  S E.  E     E  S S E  E  E  S E.  S S  
------------------------|---------------------------|---------------------------|----------------------------|
------------------------|-----2---2--2--3--2--------|------------------0--------|-----2---2--2--3--2---------|
------------------------|--------------------2------|-----0---0--0--0----2------|--------------------2---0---|
------------------------|---------------------------|---------------------------|--------------------------4-|
--0----------0----------|--0------------0-----------|--0------------0-----------|--0------------0------------|
------0---3------0---3--|-------0----3-------0---3--|-------0----3-------0---3--|-------0----3-------0---3---|


  E  S S S S E  E.  S E  E    
----------------------5-----||
-----------0----------------||
--0--0---0------2-----------||
-------4--------------------||
--0-------------0-----------||
-------0-----3------0-------||




Duration Legend
---------------
W - whole
H - half
Q - quarter
E - 8th
S - 16th
Login or Register to remove this ad.