Dummy! (Undertale) Guitar Tab

Submitted: Jan 02, 2017 by johnbie

4.8
Average: 4.8 (5 votes)
Download | Listen
Game: Undertale
Composer(s): Toby Fox
Style: Arrangement, Fingerstyle

AutoScroll: Slow | Medium | Fast
Dummy!
UNDERTALE
Song By Toby Fox
Arrenged By John Lee



     E  E  E  E  E  S E  S E     E  E  E  E  E  S E  S E     E  E  E  E  E  S E  S E     E  E  E  E  E  E  E  E     
E||----------------------0-4--|------------------------7--|----------------------0-4--|---------------------------||
B||-----1--3-----1--3-4-------|-----1--3-----1--3-4--8----|-----1--3-----1--3-4-------|-----1-----0---------------||
G||--2--------2---------------|--2--------2---------------|--2--------2---------------|--2-----1--------3-----2--*||
D||---------------------------|---------------------------|---------------------------|--------------5-----4-----*||
A||---------------------------|---------------------------|---------------------------|---------------------------||
E||---------------------------|---------------------------|---------------------------|---------------------------||


  S S E  E  E  E  S E  S E     E  S E  S E  E  S E  S E     S S E  E  E  E  S E  S E     E  S E  S E  E  S E  S E   
-----------------------0-4--|----------0-4----------0-4--|-------------------------7--|------------7------------7--|
------1--3-----1--3-4-------|--1--3-4-------1--3-4-------|------1--3-----1--3-4--8----|--1--3-4--8----1--3-4--8----|
--2---------2---------------|----------------------------|--2---------2---------------|----------------------------|
----------------------------|----------------------------|----------------------------|----------------------------|
----0----0--0---------------|----------------------------|----0----0--0---------------|----------------------------|
---------------0--0----0----|--0--0----0----0--0----0----|---------------0--0----0----|--0--0----0----0--0----0----|


  S S E  E  E  E  S E  S E     E  S E  S E  E  S E  S E     S S E  E  E  E  S E  S E     S S E  E  E  S E  S Q     
-----------------------0-4--|----------0-4----------0-4--|-----------------------0-4--|------------1--0-1--0-4----|
------1--3-----1--3-4-------|--1--3-4-------1--3-4-------|------1--3-----1--3-4-------|------1--3-----------------|
--2---------2---------------|----------------------------|--2---------2---------------|--2------------------------|
----------------------------|----------------------------|----------------------------|----0----0-----------------|
----0----0--0---------------|----------------------------|----0----0--0---------------|---------------------------|
---------------0--0----0----|--0--0----0----0--0----0----|---------------0--0----0----|---------------------------|


  S S E  E  E  S S E  S S E     S S S S S S S S S S S E  S S T T    E  E  E  E  E  E  E  E     E  E  S S E  S S S E  S S S  
--5--------------0-----------|------------------------5--3-------|--------------------1-----|--0-----5------4-1---0--1-0-1-|
----------------------3-1----|----4-3-1-3-4-----1----------4-3-1-|--------0-----1-----------|------------------------------|
--------------------------2--|--------------0-2---2-0------------|--2-----------------------|-----2------2-----------------|
-----------------------------|-----------------------------------|--------------------------|--0--0----0-------------------|
--0-0------------------------|------------------0---0----0-------|--0--0-----2-----3-----0--|------------------------------|
------3--2--1--0---0--0---0--|--0---0-----0----------------------|--------------------------|---------------0---0----0-----|


  E  E  S S E  E  S E  S S S    E  S E  S S S E  S E  S S S    E  E  S S E  E  S E  S S S    E  S E  S S S E  S E  S S S  
--0--------------------1-0-1-|----------1-0-1---------1-0-1-|--0--------------------1-0-1-|----------1-0-1---------1-0-1-|
-----1---------1----0--------|--1----0--------1----0--------|-----1---------1--3-0--------|--1--3-0--------1--3-0--------|
--------2---------2----------|-----2-------------2----------|--------2--------------------|------------------------------|
------------2----------------|------------------------------|------------2----------------|------------------------------|
--0--0----0------------------|------------------------------|--0--0----0------------------|------------------------------|
---------------0--0----0-----|--0--0----0-----0--0----0-----|---------------0--0----0-----|--0--0----0-----0--0----0-----|


  E  E  S S E  E  S E  S S S    E  S E  S S S E  S E  S S S    E  E  S S E  S S S E  S S S    S S E  E  E  S E  Q    S  
--0--------------------1-0-1-|----------1-0-1---------1-0-1-|--0--5--0---------------------|---------------------------|
-----1---------1----0--------|--1----0--------1----0--------|------------1--3-1---3----1-3-|--4-3-1--------------------|
--------2---------2----------|-----2-------------2----------|------------------------------|---------2-----0-1--2----L-|
------------2----------------|------------------------------|------------------------------|--0---------0--------------|
--0--0----0------------------|------------------------------|--0--0----0-------------------|--------------------0----L-|
---------------0--0----0-----|--0--0----0-----0--0----0-----|---------------0---0----0-----|---------------0-4---------|


    S S E  E  E  S S E  E  E     S S E  S S E  S S E  E  E     S E  E  S E  S E  E  S E     S S S S S S S S S E  E.  E   
|-----------------------------|-----------------------------|------------5------------5--|------------------------------|
|---4-3-1--------4-3-1--------|--4-3-1--4-3-1--4-3-1--------|----------------------------|------------------------------|
|*---------2------------2-----|-----------------------2-----|--0-1--2-------0-1--2-------|--0-0-1---2-------0-1--2---L--|
|*------------2------------2--|--------------------------2--|----------------------------|--------------2-2-------------|
|-----------------------------|-----------------------------|--0----0--0----0----0--0----|--0-----0---0-----0----0------|
|---1---------1--1---------1--|--1------1------1---------1--|----------------------------|------------------------------|


  S S S S S S E  S S S S S S E     T T T T T E  S E  H        T    E  S S S S E  E  S E  S E     E  S S S S E  S E  E.  S S    
--------------------------------|-------------------------------|------------------------0-4--|------------------------------||
--4-3-1-0---1-0--4-3-1-0---1-0--|-------------------------------|-----1---3------1--3-4-------|-----1---3--------------------||
----------2--------------2------|-------------------------------|--2----------2---------------|--2----------2--0-1--2-----L-*||
--------------------------------|--7-6-5-4-3-2--0----2--------L-|-----------------------------|-----------------------------*||
--------------------------------|-----------------3-------------|--0----0---0----0----0--0----|--0----0---0----0----0--------||
--1-----------1--1-----------1--|-------------------------------|-----------------------------|------------------------------||


  E  E  E  E  E  S E  E  S    S. T E  E  E  S E  E  E.     E  E  E  E  E  S E  E  S    S. T E  E  E  S E  S S S E   
---------------------------|----------------------------|---------------------------|---------------------------5--|
---------------------------|----------------------------|---------------------------|------------------------------|
--0--1--2-----0--1-2-----0-|--L--0-1--2-----0-1--2------|--0--1--2-----0--1-2-----0-|--L--0-1--2-----0-1--2--------|
---------------------------|-------------2--------------|---------------------------|-------------2----------------|
---------------------------|----------------------------|---------------------------|------------------------------|
---------------------------|----------------------------|---------------------------|------------------------------|


  E  E  E  E  E  S E  E  S    S. T E  E  E  S E  E  E.     E  E  E  E  E  S E  E  S    S. T E  E  E  S E  E  S E   
--5------------------------|--5-------------------------|--5------------------------|--5--------------------------|
---------------------------|----------------------------|---------------------------|-----------------------------|
--0--1--2-----0--1-2-----0-|--L--0-1--2-----0-1--2------|--0--1--2-----0--1-2-----0-|--L--0-1--2-----0-1--2-------|
---------------------------|-------------2--------------|---------------------------|-------------2---------------|
---------------------------|----------------------------|---------------------------|-----------------------------|
--3------------------------|--3-------------------------|--3------------------------|--3--------------------------|


  E  E  E  E  E  S E  S S S    S. T E  E  E  S S S E  S E     E  E  E  E  E  S E  S S S    S. T E  E  E  S S S E  S E   
-----1--3--------1-3------6-|--L--6-5--3--1----1---3-------|-----1--3--------1-3------6-|--L--6-5--3--1----1---3-------|
--3-----------3-------------|----------------3-------------|--3-----------3-------------|----------------3-------------|
--0-------------------------|------------------------------|--0-------------------------|------------------------------|
----------------------------|------------------------------|----------------------------|------------------------------|
----------------------------|------------------------------|----------------------------|------------------------------|
--3--------3------------3---|--3----------3-------------3--|--3--------3------------3---|--3----------3-------------3--|


  E  E  E  E  E  S E  S S S    S. T E  E  E  S S S E  S E     E  E  E  E  E  S E  S S S    S. T E  E  E  S S S E  S E   
-----1--3--------1-3------6-|--L--6-5--3--1----1---3-------|-----1--3--------1-3------6-|--L--6-5--3--1----1---3-------|
--3-----------3-------------|----------------3-------------|--3-----------3-------------|----------------3-------------|
--0-------------------------|------------------------------|--0-------------------------|------------------------------|
----------------------------|------------------------------|----------------------------|------------------------------|
----------------------------|------------------------------|----------------------------|------------------------------|
--3--------3------------3---|--3----------3-------------3--|--3--------3------------3---|--3----------3-------------3--|


  S S E  E  E  S S E  S S E     S S S S S S S S S S S E  S S T T    E  E  E  E  E  E  E  E     E  E  S S E  S S S E  S S S  
--5--------------0-----------|------------------------5--3-------|--------------------1-----|--0-----5------4-1---0--1-0-1-|
----------------------3-1----|----4-3-1-3-4-----1----------4-3-1-|--------0-----1-----------|------------------------------|
--------------------------2--|--------------0-2---2-0------------|--2-----------------------|-----2------2-----------------|
-----------------------------|-----------------------------------|--------------------------|--0--0----0-------------------|
--0-0------------------------|------------------0---0----0-------|--0--0-----2-----3-----0--|------------------------------|
------3--2--1--0---0--0---0--|--0---0-----0----------------------|--------------------------|---------------0---0----0-----|


  E  E  S S E  E  S E  S S S    E  S E  S S S E  S E  S S S    E  E  S S E  E  S E  S S S    E  S E  S S S E  S E  S S S  
--0--------------------1-0-1-|----------1-0-1---------1-0-1-|--0--------------------1-0-1-|----------1-0-1---------1-0-1-|
-----1---------1----0--------|--1----0--------1----0--------|-----1---------1--3-0--------|--1--3-0--------1--3-0--------|
--------2---------2----------|-----2-------------2----------|--------2--------------------|------------------------------|
------------2----------------|------------------------------|------------2----------------|------------------------------|
--0--0----0------------------|------------------------------|--0--0----0------------------|------------------------------|
---------------0--0----0-----|--0--0----0-----0--0----0-----|---------------0--0----0-----|--0--0----0-----0--0----0-----|


  E  E  S S E  E  S E  S S S    E  S E  S S S E  S E  S S S    E  E  S S E  S S S E  S S S    S S E  E  E  S E  Q    S  
--0--------------------1-0-1-|----------1-0-1---------1-0-1-|--0--5--0---------------------|---------------------------|
-----1---------1----0--------|--1----0--------1----0--------|------------1--3-1---3----1-3-|--4-3-1--------------------|
--------2---------2----------|-----2-------------2----------|------------------------------|---------2-----0-1--2----L-|
------------2----------------|------------------------------|------------------------------|--0---------0--------------|
--0--0----0------------------|------------------------------|--0--0----0-------------------|--------------------0----L-|
---------------0--0----0-----|--0--0----0-----0--0----0-----|---------------0---0----0-----|---------------0-4---------|


  E  E  E  E  T E  T T S E  E     S S E  E  E  T E  T T S E  E     S S S S S S S S S S S S S S S S    S S E  E  E  E  E  Q     
--------0--2--3-4----L-2----0--|---------0--2--3-4----L-2----4--|--5-0-----------------------------|--------------------------|
-----1-------------------------|------1-------------------------|------1---1-----5-4-0-------------|--------------------------|
--2----------------------------|--2-2---------------------------|--------2---2---------------------|--2-2-1-----1--2----------|
-----2-----2-------2--------2--|------2-----2-------2--------2--|--0-----------2-------4---4-------|---------4--------2-------|
--0-----------0----------------|--0------------0----------------|------------------------6---6-2-6-|---------------------0----|
--------0----------------0-----|---------0----------------0-----|----------------------------------|--------------------------|


  E  E  E  E  T E  T T S E  E     S S E  E  E  T E  T T S E  E     S S S S S S S S S S S S S S S S    S S E  E  E  E  E  Q              
--------0--2--3-4----L-2----0--|---------0--2--3-4----L-2----4--|--5-0-----------------------------|--------------------------|-------||
-----1-------------------------|------1-------------------------|------1---1-----5-4-0-------------|--------------------------|-------||
--2----------------------------|--2-2---------------------------|--------2---2---------------------|--2-2-1-----1--2-----2----|-------||
-----2-----2-------2--------2--|------2-----2-------2--------2--|--0-----------2-------4---4-------|---------4--------2-------|-------||
--0-----------0----------------|--0------------0----------------|------------------------6---6-2-6-|--------------------------|-------||
--------0----------------0-----|---------0----------------0-----|----------------------------------|--------------------------|-------||




Duration Legend
---------------
W - whole
H - half
Q - quarter
E - 8th
S - 16th
T - 32nd
X - 64th
. - note dotted
Login or Register to remove this ad.