Dogsong (Undertale) Guitar Tab

Submitted: Feb 26, 2016 by InsaneGamingFanatic (Last updated: Feb 27, 2016)

5
Average: 5 (7 votes)
Download | Listen
Game: Undertale
Composer(s): Toby Fox
Style: Alternate picking, Transcription

AutoScroll: Slow | Medium | Fast
Undertale
Dogsong
Composed by Toby Fox
Tabbed by InsaneGamingFanatic


Standard tuning.

e-----4--1---------------------------4--1-----------2-1--------------
B----------2-4-2---2---2-1-2-4------------2-4-2----2----4-4-2-----2-2
G---------------1-3--3--------------------------1-3-----------3-3----  x2
D--------------------------------------------------------------------
A--------------------------------------------------------------------
E--------------------------------------------------------------------

e----------------------------------------------------------------------------------
B--------------2-1-------------------------------2-1---------1---1-4-2-1--1--------
G-------3-3-3-------3-1-3------------------3-3-3-----3-1-3-----1--------3----------
D------------------------3-3-1-3-4-3-1---------------------------------------------
A----------------------------------------------------------------------------------
E----------------------------------------------------------------------------------

e--------------------------------------------------------------------------------------
B--------------2-1-------------------------------2-1---------1---1-4-2-1----1-1-1-1-2-1
G-------3-3-3-------3-1-3------------------3-3-3-----3-1-3-----1-----------------------
D------------------------3-3-1-3-4-3-1-------------------------------------------------
A--------------------------------------------------------------------------------------
E--------------------------------------------------------------------------------------
Login or Register to remove this ad.