Dogsong (Undertale) Guitar Tab

Submitted: Nov 13, 2015 by LieutenantSarge

4
Average: 4 (7 votes)
Download | Listen
Game: Undertale
Composer(s): Toby Fox
Style: Transcription

AutoScroll: Slow | Medium | Fast
|4--1---------------------------------------------------|
|-------2--4-2------2----------2--1-2-4-----------------|
|----------------1-3---------3--------------------------|
|-------------------------------------------------------|
|-------------------------------------------------------|
|-------------------------------------------------------|

|4--1-------------------------2-1-----------------------|
|-------2--4-2------2-------------4--4-2---------2--2---|
|----------------1-3-----------------------3----3-------|
|-------------------------------------------------------|
|-------------------------------------------------------|
|-------------------------------------------------------|
Repeat

|-------------------------------------------------------|
|----------2-1------------------------------------------|
|3--3--3-------3--1--3----------------------------------|
|------------------------------3--3----1--3-4-3-1-------|
|-------------------------------------------------------|
|-------------------------------------------------------|

|-------------------------------------------------------|
|----------2-1-----------------1-----1-4-2--1---1-------|
|3--3--3-------3--1--3----------1-------------3---------|
|-------------------------------------------------------|
|-------------------------------------------------------|
|-------------------------------------------------------|

|-------------------------------------------------------|
|----------2-1------------------------------------------|
|3--3--3-------3--1--3----------------------------------|
|------------------------------3--3----1--3-4-3-1-------|
|-------------------------------------------------------|
|-------------------------------------------------------|

|-------------------------------------------------------|
|----------2-1-----------------1-----1-4-2--1--1-1-2-4-4|
|3--3--3-------3--1--3----------1-----------------------|
|-------------------------------------------------------|
|-------------------------------------------------------|
|-------------------------------------------------------|
Login or Register to remove this ad.

3 comments on Dogsong

Five out of Five Dogs

5

░░░░██░░████████░░██░░░░░░░░░░░░░░░░░░░░░░░░
░░██▒▒██▒▒▒▒▒▒▒▒██▒▒██░░░░░░░░░░░░░░░░░░░░░░
░░██▒▒▒▒▒▒▒▒▒▒▒▒▒▒▒▒██░░░░░░░░░░░░░░░░░░░░░░
░░██▒▒▒▒▒▒▒▒▒▒▒▒▒▒▒▒▒▒██░░░░░░░░░░░░░░░░░░░░
██▒▒▒▒██▒▒▒▒██▒▒▒▒▒▒▒▒▒▒██░░░░░░░░░░░░░░░░░░
██▒▒▒▒▒▒▒▒▒▒▒▒▒▒▒▒▒▒▒▒▒▒▒▒████░░░░░░░░░░░░░░
██▒▒▒▒▒▒████▒▒▒▒▒▒▒▒▒▒▒▒▒▒▒▒▒▒████████████░░
██▒▒██▒▒██▒▒▒▒██▒▒▒▒▒▒▒▒▒▒▒▒▒▒▒▒▒▒▒▒▒▒▒▒▒▒██
██▒▒▒▒████████▒▒▒▒▒▒▒▒▒▒▒▒▒▒▒▒▒▒▒▒▒▒██████░░
██▒▒▒▒▒▒▒▒▒▒▒▒▒▒▒▒▒▒▒▒▒▒▒▒▒▒▒▒▒▒▒▒▒▒██░░░░░░

Great Tab!

5

( ͡° ͜ʖ ͡°) I loved it. #Undertale

5