Ads

Dogsong (Undertale) Guitar Tab

Submitted: Nov 08, 2015 by Alleeelex

4.875
Average: 4.9 (8 votes)
Download | Listen
Game: Undertale
Composer(s): Toby Fox
Style: Arrangement, Fingerstyle

AutoScroll: Slow | Medium | Fast
Dogsong
From Undertale
Composed by tobyfox
Tabbed by Alleeelex
28 October 2015

Around 118 BPM
Tempo fluctuates
4/4
    C#                            F#           G#             C#                            F#     G#     F# G# C#
    E  E  S S E  E  S S S S S S   E  E  S S E  E  S S E  E    E  E  S S E  E  S S S S S S   S S E  S S E  E  E  E.  S
e||----4------------------------|---------------------------|----4------------------------|-2-1-----------------------|
B||---------6-------4-----------|---------2---------4-------|---------6-------4-----------|-----4--4-2----------2-----|
G||*-------------6----6-----3-6-|----3------3--5--6---------|--------------6----6-----3-6-|------------3--3--5--------|
D||*---6------6-----6-----6-3---|---------------------------|----6------6-----6-----6-----|-------------------------6-|
A||-4-----4------4------4-------|----4------4-----6------6--|-4-----4------4------4-------|---------------------4-----|
E||-----------------------------|-2-----2------4------4-----|-----------------------------|-2------4------2--4--------|

  C#                            F#           G#             C#                            F#     G#     F# G# C#
  E  E  S S E  E  S S S S S S   E  E  S S E  E  S E.   E    E  E  S S E  E  S S S S S S   S S E  S S E  E  E  Q
|----4------------------------|---------------------------|----4------------------------|-2-1-----------------------|
|---------6-------4-----------|---------2---------4-------|---------6-------4-----------|-----4--4-2----------2-----|
|--------------6----6-----3-6-|----3------3--5--6---------|--------------6----6-----3-6-|------------3--3--5--------|
|----6------6-----6-----6-3---|------------------------4--|----6------6-----6-----6-----|---------------------------|
|-4-----4------4------4-------|----4------4---------------|-4-----4------4------4-------|---------------------4-----|
|-----------------------------|-2-----2------4----4-------|-----------------------------|-2------4------2--4--------|

  F#                            C#                           F#                            G#
  E  E  S S E  E  S S S S S S   E  E  S S E  E  S S S S E    E  E  S S E  E  S S S S S S   E  E.   E.   E  S E  S S S
|-----------------------------|----------------------------|-----------------------------|-----------------------------|
|-----------------2-----------|----------------------------|-----------------2-----------|-----------------4-----------|
|----3----3----3----5---3---3-|----------------------------|----3----3----3----5---3---3-|----5---------5----6--5---5--|
|-----------4-------------4---|----3----3-3--1--3-4---3-1--|-----------4-------------4---|---------6--------------6----|
|----4------4-----4-----------|-4-----4---4--4------4------|----4------4-----4-----------|----6-------------------6----|
|-2-----2------2------2-------|----------------------------|-2-----2------2------2-------|-4-------4----4----4---------|

  F#                            C#                           F#                            G#
  E  E  S S E  E  S S S S S S   E  E  S S E  E  S S S S E    E  E  S S E  E  S S S S S S   E  E.   E.   E  S E  E
|-----------------------------|----------------------------|-----------------------------|-------------------------|
|-----------------2-----------|----------------------------|-----------------2-----------|-----------------4-------|
|----3----3----3----5---3---3-|----------------------------|----3----3----3----5---3---3-|----5---------5----6--5--|
|-----------4-------------4---|----3----3-3--1--3-4---3-1--|-----------4-------------4---|-6-------6---------------|
|----4------4-----4-----------|-4-----4---4--4------4------|----4------4-----4-----------|---------6---------------|
|-2-----2------2------2-------|----------------------------|-2-----2------2------2-------|-4------------4----4--4--|

                           Repeat indefinitely
  E  E  E  E  E.   S Q
|--------------------------||
|--------------------------||
|----5--5--6--5----5-L----*||
|-------------------------*||
|----------6---------------||
|----4--4-----4----4-L-----||

Duration Legend
---------------
W - whole
H - half
Q - quarter
E - 8th
S - 16th


Tablature Legend
----------------
L - tied note
Login or Register to remove this ad.

2 comments on Dogsong

I like it! Sounds like it

5

I like it!

Sounds like it could benefit from a capo fret 2 though, to relieve some of the constant barring feeling. Some stuff would need to be switched around a tiny bit, but it's pretty doable.

Good job =)

>:D

5

*looks at tab*

All right, let me just...

*cracks knuckles*

Then I'll sit down here and...

*tunes guitar*

Almost ready to...

*strums a G major chord*

And th- nope, too hard for me. T_T