Ads

Determination (Undertale) Guitar Tab

Submitted: Aug 22, 2017 by Emi

5
Average: 5 (2 votes)
Download | Listen
Game: Undertale
Composer(s): Toby Fox
Style: Arrangement, Fingerstyle

Click here for a video example.

AutoScroll: Slow | Medium | Fast
Title: Determination
Game: Undertale
Composer: Toby Fox
Arranger : Emilien Delcour
Tempo = 120
Guitar
Standard Tuning

Check the video out! 
https://www.youtube.com/watch?v=V1oipU_6qVY


Legend
L - tied note
x - dead note
h - hammer on/pull off
^ - brush down


                            ^                                        
E ||-3--2--0-----0-------|----------------------------|-------------|
B ||----------3-----0----|--2-------------------------|--------3----|
G ||o--------------------|--2-----2-------------------|--0--2--4----|
D ||o------2-------------|--2--2-----2--------2--4----|--2--0--4----|
A ||-2-------------------|--0--------------0----------|--3-----2----|
E ||---------------------|--------------0-------------|-----2-------|

                                                ^                    
----------------------|--3--2--0-----0-------|--------------0--2----|
--0--------0----------|-----------3-----0----|--2-------------------|
--0-----0-------------|----------------------|--2-----2-------------|
--2--2-----------2----|--------2-------------|--2-----2-------------|
--2-----------2-------|--2-------------------|--0--0-----0----------|
----------------------|----------------------|----------------------|

                ^                                                             
--3--2-------|--0------------------||--5-------------------------------------|
--1--3--3----|--0--------0---------||--------8-----6-----5-----------5h-6----|
--0--2--4----|--0-----0-----------o||--------------------------7-------------|
--2--0--4----|-----2--------------o||--------------7-----------7-------------|
--------2----|--2--------------2---||--8-------------------------------------|
-------------|--------------0------||----------------------------------------|

                                                                     
--0-------------------|--5-------------------|--0-------------------|
--------0-------------|-----8--6--5-----6----|--------0-------------|
-----0-----0----------|--------------7-------|-----0-----0----------|
--2--------------2----|--------7-----7-------|----------------------|
----------------------|--8-------------------|-----------------2----|
--------------0-------|----------------------|--0-----------0-------|

                                                                     
----------------------|----------------------|--------------0-------|
--3--2--0-----0--2----|--0-------------------|--1-----1--------1----|
-----------2----------|----------------------|-----------0----------|
----------------------|--------2-----2--4----|-----2----------------|
--------0-------------|----------------------|--3-------------------|
----------------------|--------0-------------|----------------------|

                                                                
----------------------|--5-------------------------------------|
--4-----------4-------|--------8-----6-----5-----------5h-6----|
-----4-----4----------|--------------------------7-------------|
--------4-------------|--------------7-----------7-------------|
--2-------------------|--8-------------------------------------|
----------------------|----------------------------------------|

                                                                     
--0-------------------|--5-------------------|--0-------------------|
--------0-------------|-----8--6--5-----6----|--------0-------------|
-----0-----0----------|--------------7-------|-----0-----0----------|
--2--------------2----|--------7-----7-------|----------------------|
----------------------|--8-------------------|-----------------2----|
--------------0-------|----------------------|--0-----------0-------|

                                                            
----------------------|----------------------|-------------|
--3--2--0-----0--2----|--0-------------------|-------------|
-----------2----------|----------------------|--0----------|
----------------------|--------2-----2--4----|-----4--0----|
--------0-------------|----------------------|--3--0-------|
----------------------|--------0-------------|--------2----|

  ^                                             ^                    
----------------------|--3--2--0-----0-------|--------------0--2----|
----------------------|-----------3-----0----|--2-------------------|
----------------------|----------------------|--2-----2-------------|
--2-----2-------------|--------2-------------|--2--2-----2----------|
--2--2-----2----------|--2-------------------|--0-------------------|
--0-----------0-------|----------------------|----------------------|

                                                            
--3--5--10---|--7-----------7-------|--3--2--0-----0-------|
--1--7--7----|--8--------8-----8----|-----------3-----0----|
--0--7--7----|--9-----9-------------|----------------------|
--2--7--9----|--9--9----------------|--------2-------------|
-------------|----------------------|--2-------------------|
-------------|----------------------|----------------------|

  ^                                    ^                    
--------------0--2----|--3--2-------|--0-------------------|
--2-------------------|--1--3--3----|--0--------0----------|
--2-----2-------------|--0--2--4----|--0-----0-------------|
--2--2-----2----------|--2--0--4----|-----2-----------2----|
--0-------------------|--------2----|--2-----------2-------|
----------------------|-------------|----------------------|

                         ^                                  
--3--2--0-----0-------|--------------0--2----|--3--5--10---|
-----------3-----0----|--2-------------------|--1--7--7----|
----------------------|--2-----2-------------|--0--7--7----|
--------2-------------|--2-----2-------------|--2--7--9----|
--2-------------------|--0--0-----0----------|-------------|
----------------------|----------------------|-------------|

                                                ^
--7-------------------|--3--2--0-----0-------|--------------0--2----|
--8-----8-------------|-----------3-----0----|--2-------------------|
--9--9-----9----------|----------------------|--2-----2-------------|
--9--------------9----|--------2-------------|--2-----2-------------|
--------------7-------|--2-------------------|--0--0-----0----------|
----------------------|----------------------|----------------------|


--3--2-------|----------------------|---------------------|-------||
--1--3--3----|----------------------|---------------------|-------||
--0--2--4----|--------0-------------|---------------------|-------||
--2--0--4----|--2h-4--------4-------|--0-----x-----2------|--L----||
--------2----|--------3-----0-------|--------x-----2------|--L----||
-------------|----------------------|--2-----x--0--0------|--L----||

Login or Register to remove this ad.

1 comment on Determination

I like to play this half a

I like to play this half a step down. Other than that, good work on this.