Ads

Determination (Undertale) Guitar Tab

Submitted: Mar 25, 2016 by CrizBN

5
Average: 5 (2 votes)
Download | Listen
Game: Undertale
Composer(s): Toby Fox
Style: Arrangement, Fingerstyle

AutoScroll: Slow | Medium | Fast
Determination
from UNDERTALE
Song by Toby Fox
Tabbed by CrizBN

Tune all strings down by one half step for the original key

     E  E  E  E  E  E     E  E  E  E  E  E     E  E  E  E  E  E     E  E  E  E  E  E
e |--3--2--0-----0-----|--------------0--2--|--3-----5-----10----|--7-----------------|
B |-----------3-----0--|--2--------0--------|--------------------|--------------------|
G |--------------------|--------2-----------|--------------------|--0-----------------|
D |--------2-----------|-----2--------------|-----2-----4--------|-----------0--2-----|
A |-----2--------------|--0-----------0-----|--3-----5-----10-9--|--7--9--7--------2--|
E |--0-----------3-----|--------------------|--------------------|--------------------|


     E  E  E  E  E  E     E  E  Q     E  E     E  E  E  E  E  E     E  E  E  E  E  E
  |--3--2--0-----0-----|--------------------|--------------------|--------------------||
  |-----------3-----0--|--2-----------------|--------------------|-------------------*||
  |--------------------|--------2-----------|--0--------0--------|--0-----------------||
  |--------2-----------|-----2--------2--4--|-----2--4-----4--0--|--2--4--2--0--2--4--||
  |-----2--------------|--0-----------0-----|--3-----5-----5-----|--------------2----*||
  |--0-----------3-----|--------------------|--------------7-----|--0-----------------||


     E  E  E  E  E  E     Q     Q     E  E     E  E  E  E  E  E     H           E  E
 ||--5--3--1--0-----1--|--0--------------0--|--5--3--1--0-----1--|--0-----------------|
 ||*-6--5--3--1--3--3--|--0-----0-----0--0--|--6--5--3--1--3--3--|--0-----------------|
 ||--------------4-----|--------0-----0-----|--------------4-----|-----------------2--|
 ||--3-----------5-----|--2-----------2-----|--3-----------0-----|--2-----------2--2--|
 ||*-------------------|--------------------|--------------------|--------------2-----|
 ||--------------------|--------------------|--------------------|--------------------|
   ___________________________________________________________________________________
  | 1.                                                                                |
     E  E  E  E  E  E     Q     Q     E  E     Q     Q     Q        Q     Q     Q
  |--------------------|--------------------|--------------0-----|--------------------||
  |--3--2--0-----0--2--|--0-----------------|--------1-----1-----|--4----------------*||
  |--4--2--0--2--0--2--|--0-----------------|--0-----0-----3-----|--4-----------------||
  |-----------4--------|--2-----2-----2--4--|--2-----------------|--------4-----------||
  |--0-----------0-----|--------2-----2--5--|--3-----------------|--2-----------2----*||
  |--------------------|--------------0-----|--------------------|--------------------||
   _____________________
  | 2.
     E  E  E  E  E  E     Q     Q     E  E     Q     Q     Q        H.
  |--------------------|--------------0--2--|--3-----2-----------|--0-----------------||
  |--3--2--0-----0--2--|--0-----------0--3--|--1-----3-----3-----|--0-----------------||
  |--4--2--0--2--0--2--|--0-----------0--2--|--0-----2-----2-----|--0-----------------||
  |-----------4--------|--2-----2-----2-----|--2-----0-----0-----|--2-----------------||
  |--0-----------0-----|--------2-----2-----|--3-----0-----0-----|--2-----------------||
  |--------------------|--------------------|--------------2-----|--0-----------------||
Login or Register to remove this ad.