Determination (Undertale) Guitar Tab

Submitted: Feb 20, 2016 by johnbie (Last updated: Feb 25, 2016)

4.5
Average: 4.5 (8 votes)
Download | Listen
Game: Undertale
Composer(s): Toby Fox
Style: Arrangement, Fingerstyle

AutoScroll: Slow | Medium | Fast
Determination
Song By Toby Fox
Arranged By John Lee
Capo 1



     E  E  E  E  E  E     E  E  E  E  E  E     E  E  E  E  E  E     E  E  E  E  E  E   
E||--1--0--------------|-----------------0--|--1-----3-----8-----|--5-----------------|
B||--------3--1--3-----|--0-----------3-----|--------------------|--------------------|
G||-----------0--2--2--|--------0-----------|--------------------|--------------------|
D||-----0--3--------3--|--3--------0-----3--|--0--0--------------|--3--2--0-----0-----|
A||--------------------|--------2-----2-----|-----------------7--|-----------3-----0--|
D||--0-----------------|-----3--------------|--------2--3--5-----|--------------------|


  E  E  E  E  E  E     E  E  E  E  E  E     E  E  E  E  E  E     E  E  E  E  E  E     
--1--0--------------|-----------------0--|--1-----0-----------|---------------------||
--------3--1--3-----|--0-----------3-----|--------------1-----|--3------------------||
-----------0--2--2--|--------0-----------|--------------------|--------------------*||
-----0--3--------3--|-----0--------------|--------------------|--------------------*||
--------------------|--2-----------0-----|--1--------0-----3--|-----------3-----0---||
--0-----------------|--------0--3-----5--|-----0--3-----2-----|--3--2--0-----0--2---||


   E  E  E  E  E  E     E  E  E  E  E  E     E  E  E  E  E  E     H        E  E   
---3--1--------------|--------------------|--3--1--------------|-----------------|
---------4--3--1--4--|--3--------------3--|--------4--3--1--4--|--3--------------|
*--------------2-----|-----0--2-----2-----|--------------2-----|--------------0--|
*--------5--3--------|--3-----3-----3-----|--------5--3--------|--3--------0--0--|
---------------0-----|--------------3-----|--------------0-----|-----------0-----|
---1-----------------|-----------2--------|--1-----------------|-----------------|


  E  E  E  E  E  E     E  E  E  E  E  E     Q    Q    Q       E  E  E  E  E  E     
--------------------|--------------------|-----------------|---------------------||
--1--0-----------0--|--------------------|------------3----|--2------------------||
--2--0--2--0--2--0--|--2-----------------|-------3----3----|--2-----------------*||
--------3-----3-----|--3-----0-----0--2--|--3----3---------|--2-----------------*||
--------2-----------|--------0-----0-----|------------0----|--------------4------||
-----0--------3-----|-----2-----2-----2--|--0--------------|-----3--2--0-----2---||


  E  E  E  E  E  E     Q    Q    E  E     Q    Q    Q       H.             
--------------------|------------------|-----------------|---------------||
--1--0-----------0--|------------------|-----------------|---------------||
--2--0--2--0--2--0--|--2---------------|-----------------|---------------||
--------3--2--3-----|--3----0----0--2--|--3----2---------|--0------------||
--------------------|-------0----0-----|--5----3----3----|--0------------||
--------------------|------------------|------------3----|--0------------||




Duration Legend
---------------
W - whole
H - half
Q - quarter
E - 8th
S - 16th
. - note dotted
Login or Register to remove this ad.

2 comments on Determination

https://soundcloud.com/choogs

5

https://soundcloud.com/choogs/undertale-determination

C:

The arrangement and the

The arrangement and the recording are both great !