Death By Glamour (Undertale) Guitar Tab

Submitted: Nov 07, 2015 by Xenifus

4.166665
Average: 4.2 (6 votes)
Download | Listen
Game: Undertale
Composer(s): Toby Fox
Style: Transcription

AutoScroll: Slow | Medium | Fast
=========================================

Title:     Death By Glamour (Mettaton EX)
Game:      Undertale
Composer:  Toby "Radiation" Fox
Year:      2015
Tabber:    Xeni Kobalt [Xenifus]

=========================================


STANDARD TUNING (EADGBE)


Riff 1:
[DIST ELEC, PALM MUTE OPTIONAL]
e|-------------------------------|
B|-------------------------------|
G|-------------------------------| * REPEAT 20x
D|-------------------------------|
A|---------5-4------------5-4----|
E|-0---3-----------0--0-3--------|


Riff 2: 1:04
[DIST ELEC]
e|-------7-8--------------5/7-6-5--5------------------------|
B|-5-7-8--------5----4---------------4------5-4-5--7-5-7--8-|
G|------------5----4----4---------------2/4-----------------|
D|----------------------------------------------------------|
A|----------------------------------------------------------|
E|----------------------------------------------------------|

e|-------7-8--------------5/7-6-5--5------------------------|
B|-5-7-8--------5----4---------------4------8--10-8-7-------|
G|------------5----4----4------------------------------7--9-| * REPEAT FIRST LINE, THEN SKIP TO THIRD
D|--------------------------------------7/9-----------------|
A|----------------------------------------------------------|
E|----------------------------------------------------------|

e|-------7-8--------------5/7-6-5--5-----10--10--10-10--11--|
B|-5-7-8--------5----4---------------4----------------------|
G|------------5----4----4-----------------------------------|
D|----------------------------------------------------------|
A|----------------------------------------------------------|
E|----------------------------------------------------------|


Riff 3:
[DIST ELEC]
e|-14--12-11-12---11-9-9-11-9-----------------------------9----8-8-9-11--9-11-|
B|----------------------------12----------------------------11----------------|
G|-------------------------------11---8-9-11-11-11/13-11----------------------|
D|----------------------------------------------------------------------------|
A|----------------------------------------------------------------------------|
E|----------------------------------------------------------------------------|

e|-14--12-11-12---11-9-9-11-9-----------------------------9----7-7-9-11--9-7--|
B|----------------------------12----------------------------11----------------|
G|-------------------------------11---8-9-11-11-11/13-11----------------------| * REPEAT BOTH LINES TWICE
D|----------------------------------------------------------------------------|
A|----------------------------------------------------------------------------|
E|----------------------------------------------------------------------------|


Riff 1 Alternate:
[DIST ELEC]
e|--------------------------------|
B|--------------------------------|
G|--------------------------------| * REPEAT 4x
D|---------12-11------------12-11-|
A|-7---10-----------7--7-10-------|
E|--------------------------------|


Song Ending:
e|-5-3-2-0-------------------------0--0--------------|
B|---------3-0-------------------0------0--0---------|
G|-------------2-0-----------0-2--------------0--0---|
D|-----------------2-0---0-2------------------------2|
A|---------------------2-----------------------------|
E|---------------------------------------------------|

[REPEAT ALL]

=========================================
Login or Register to remove this ad.