Ads

Battle Against a True Hero (Undertale) Guitar Tab

Submitted: Sep 08, 2020 by Spatz447 (Last updated: Sep 13, 2020)

0
Download | No audio :(
Game: Undertale
Composer(s): Toby Fox
Style: Transcription

AutoScroll: Slow | Medium | Fast

Undertale - Battle Against a True Hero

Standard tuning
p = pull off
- = 32nd note (I've tried to make it roughly accurate to music)


Intro
play x3

e|11----13------------------------|--------------------------------|
B|------------11----13------------|14----------16------------------|
G|------------------------13--10--|------13------------13--12------|
D|--------------------------------|----------------------------13--|
A|--------------------------------|--------------------------------|
E|--------------------------------|--------------------------------|

e|11----13------------------------|--------------------16--15------|
B|------------11----13------------|14----------16------------------|
G|------------------------13--10--|------13------------------------|
D|--------------------------------|--------------------------------|
A|--------------------------------|--------------------------------|
E|--------------------------------|--------------------------------|

Intro 2 - Drop the beat!
play x4

e|--------------------------------|--------------------------------|
B|--------------------------------|--------------------------------|
G|8-----10------------------------|--------------------------------|
D|------------8-----10------------|11----------13------------------|
A|------------------------11--8---|------11------------11--10------|
E|--------------------------------|----------------------------11--|

e|--------------------------------|--------------------------------|
B|--------------------------------|--------------------------------|
G|8-----10------------------------|--------------------13--12------|
D|------------8-----10------------|11----------13------------------|
A|------------------------11--8---|------11------------------------|
E|--------------------------------|--------------------------------|

Melody
play x2

e|--------------------------------|--------------------------------|
B|------------9-------------------|------------------------8---9---|
G|------10--------10--------------|--------------------------------|
D|10------------------------------|--------------------------------|
A|--------------------------------|--------------------------------|
E|--------------------------------|--------------------------------|

e|--------------------------------|----------------------------8---|
B|11------------------------------|----------------8---9---11------|
G|--------------------------------|--------------------------------|
D|--------------------------------|--------------------------------|
A|--------------------------------|--------------------------------|
E|--------------------------------|--------------------------------|

e|--------------------------------|--------------------------------|
B|8-------------------------------|--------------------------------|
G|--------------------------------|--------------------------------|
D|--------------------------------|--------------------------------|
A|--------------------------------|--------------------------------|
E|--------------------------------|--------------------------------|

e|--------------------------------|--------------------------------|
B|8-------------------------------|--------------------------------|
G|--------------------------------|10------------------------------|
D|--------------------------------|--------10----------------------|
A|--------------------------------|--------------------------------|
E|--------------------------------|--------------------------------|


e|--------------------------------|--------------------------------|
B|------------9-------------------|------------------------8---9---|
G|------10--------10--------------|--------------------------------|
D|10------------------------------|--------------------------------|
A|--------------------------------|--------------------------------|
E|--------------------------------|--------------------------------|

e|--------------------------------|----------------------------8---|
B|11------------------------------|----------------8---9---11------|
G|--------------------------------|--------------------------------|
D|--------------------------------|--------------------------------|
A|--------------------------------|--------------------------------|
E|--------------------------------|--------------------------------|

e|11------------------------------|13------------------------------|
B|--------------------------------|--------13----------------------|
G|--------------------------------|--------------------------------|
D|--------------------------------|--------------------------------|
A|--------------------------------|--------------------------------|
E|--------------------------------|--------------------------------|

Bridge (+ time signature swap)
play x2

e|------------------------|------------------------|------------------------|------------------------|
B|----13--11--13--9---13--|8-------8---9---8---9---|8-----------11----------|------------------------|
G|10----------------------|------------------------|------------------------|10----------8-----------|
D|------------------------|------------------------|------------------------|------------------------|
A|------------------------|------------------------|------------------------|------------------------|
E|------------------------|------------------------|------------------------|------------------------|

e|------------------------|------------------------|------------------------|11----------109p8-------|
B|----13--11--13--9---13--|8-------8---9---8---9---|8-----------11----------|-------------p----------|
G|10----------------------|------------------------|------------------------|------------------------|
D|------------------------|------------------------|------------------------|------------------------|
A|------------------------|------------------------|------------------------|------------------------|
E|------------------------|------------------------|------------------------|------------------------|

Chorus - Unleash the ZUNpets!!! (octave drop included, play what you prefer, or both you crazy!)
play x2

e|------------------------|------------------------|------------------------|------------------------|
B|----13--11--13--9---13--|8-------8---9---8---9---|8-----------11----------|------------------------|
G|10----------------------|------------------------|------------------------|10----------8-----------|
D|----10--8---10--6---10--|5-------5---6---5---6---|5-----------8-----------|------------------------|
A|8-----------------------|------------------------|------------------------|8-----------6-----------|
E|------------------------|------------------------|------------------------|------------------------|

e|------------------------|------------------------|------------------------|11----------109p8-------|
B|----13--11--13--9---13--|8-------8---9---8---9---|8-----------11----------|-------------p----------|
G|10----------------------|------------------------|------------------------|8-----------7p6p5-------|
D|----10--8---10--6---10--|5-------5---6---5---6---|5-----------8-----------|------------------------|
A|8-----------------------|------------------------|------------------------|------------------------|
E|------------------------|------------------------|------------------------|------------------------|

e|------------------------|------------------------|------------------------|------------------------|
B|----13--11--13--9---13--|8-------8---9---8---9---|8-----------11----------|------------------------|
G|10----------------------|------------------------|------------------------|10----------8-----------|
D|----10--8---10--6---10--|5-------5---6---5---6---|5-----------8-----------|------------------------|
A|8-----------------------|------------------------|------------------------|8-----------6-----------|
E|------------------------|------------------------|------------------------|------------------------|

e|------------------------|------------------------|------------------------|------------------------|
B|------------------------|------------9---8-------|------------------------|------------------------|
G|10----------------------|----8---10----------8---|10----------------------|10----------------------|
D|------------------------|10----------6---5-------|------------------------|------------------------|
A|8-----------------------|----6---8-----------6---|8-----------------------|8-----------------------|
E|------------------------|8-----------------------|------------------------|------------------------|

Login or Register to remove this ad.

1 comment on Battle Against a True Hero

Minor Amendment, I found this

Minor Amendment, I found this easier to play (second bar, intro):

|------------11------------------|
|14------------------------------|
|------13------------13--12------|
|----------------------------13--|
|--------------------------------|
|--------------------------------|