Ads

Another Medium (Undertale) Guitar Tab

Submitted: Mar 20, 2016 by johnbie (Last updated: May 13, 2016)

5
Average: 5 (7 votes)
Download | Listen
Game: Undertale
Composer(s): Toby Fox
Style: Arrangement, Fingerstyle, Natural harmonics

AutoScroll: Slow | Medium | Fast
Another Medium                                       
Song By Toby Fox
Arranged By John Lee
Dropped D Tuning (DADGBE)
Capo 1



     E  E  E  E  E  E  E  E     E  E  E  E  E  E  E  E     E  E  E  E  E  E  E  E   
E||--------2-----0-----------|--------2--3--5--3--2-----|--------2-----0-----------|
B||-----------3-----0-----0--|-----0-----------------3--|-----------3-----0-----0--|
G||-----4--------------0-----|--------------------------|-----4--------------0-----|
D||--2-----------------------|--------------------------|--2-----------------------|
A||--------------------------|--------------------------|--------------------------|
D||--------------------------|--------------------------|--------------------------|


  E  E  E  E  E  E  E  E     E  E  E  E  E  E  E  E     E  E  E  E  E  E  E  E   
--------2--3--5--3--2-----|--------3--1--0-----------|--------------------------|
-----0-----------------3--|-----------------1-----1--|-----1--3--1--0-----------|
--------------------------|-----2--------------2-----|-----------------0-----0--|
--------------------------|--0-----------------------|--------------------2-----|
--------------------------|--------------------------|--------------------------|
--------------------------|--0-----------------------|--L-----------------------|


  E  E  E  E  E  E  E  E     E  E  E  E  E  E  E  E     E  E  E  E  E  E  E  E   
--------3--1--0-----------|--------------------------|--------2-----0-----------|
-----------------1-----1--|--------------0-----------|-----------3-----0-----0--|
-----2--------------2-----|-----5--7--5-----0-----0--|-----4--------------0-----|
--3-----------------------|--------------------2-----|--2-----------------------|
--------------------------|--------------------------|--------------------------|
--3-----------------------|--5-----------------------|--2-----------------------|


  E  E  E  E  E  E  E  E     E  E  E  E  E  E  E  E     E  E  E  E  E  E  E  E   
--------2--3--5--3--2-----|--------2-----0-----------|--------2--3--5--3--------|
-----0-----------------3--|-----------3-----0-----0--|-----0--------------7-----|
--------------------------|-----4--------------0-----|-----------------------7--|
--------------------------|--2-----------------------|--------------------------|
--------------------------|--------------------------|--------------------------|
--L-----------------0-----|--2-----------------------|--L-----0-----2-----5-----|


  E  E  E  E  E  E  E  E     E  E  E  E  E  E  E  E     E  E  E  E  E  E  E  E   
--------3--1--0-----------|--------------------------|--0-----3--1--0-----------|
-----1-----------1-----1--|--------0-----1-----3-----|-----------------1-----1--|
--2-----------------2-----|--------------------------|-----2--------------2-----|
--------------------------|-----0-----2-----3-----2--|--------------------------|
--------------------------|--------------------------|--------------------------|
--0-----------------------|--L-----------------------|--3-----------3-----------|


  E  E  E  E  E  E  E  E     E  E  E  E  E  E  E  E     E  E  E  E  E  E  E  E   
--------------------------|--------2-----0-----------|--------2--3--5--3--2-----|
--3-----0-----------------|-----3-----3-----0-----0--|-----0-----------------3--|
-----0-----0--5-----------|--4-----------------0-----|--------------------------|
-----------------5-----5--|--------------------------|--------------------------|
--------------------7-----|--------------------------|--------------------------|
--5-----------5-----------|--2-----------2-----------|--L-----------2-----0-----|


  E  E  E  E  E  E  E  E     E  E  E  E  E  E  E  E     E  E  E  E  E  E  E  E   
--------2-----0-----------|--------2--3--5--3--------|--------3--1--0-----------|
-----------3-----0-----0--|-----0--------------7-----|-----------------1-----1--|
-----4--------------0-----|-----------------------7--|-----2--------------2-----|
--2-----------------------|--------------------------|--0-----------------------|
--------------------------|--------------------------|--------------------------|
--2-----------2-----------|--L-----0-----2-----5-----|--0-----0-----0-----0-----|


  E  E  E  E  E  E  E  E     E  E  E  E  E  E  E  E     E  E  E  E  E  E  E  E   
--------------------------|--------3--1--0-----------|--------------------------|
-----1--3--1--0-----------|-----------------1-----1--|-----1--3--1--0-----------|
-----------------0-----0--|-----2--------------2-----|-----------------0-----0--|
--------------------2-----|--3-----------------------|--------------------2-----|
--------------------------|--------------------------|--------------------------|
--0-----0-----0-----0--0--|--3-----3-----3-----3-----|--3-----3-----3-----3--3--|


  E  E  E  E  E  E  E  E     E  E  E  E  E  E  E  E     E  E  E  E  E  E  E  E   
--------2-----0-----------|--------2--3--5--3--2-----|--------2-----0-----------|
-----------3-----0-----0--|-----------------------3--|-----------3-----0-----0--|
-----4--------------0-----|-----4--------------------|-----4--------------0-----|
--2-----------------------|--------------------------|--2-----------------------|
--------------------------|--------------------------|--------------------------|
--2-----2-----2-----2-----|--2-----0-----2-----0--0--|--2-----2-----2-----2-----|


  E  E  E  E  E  E  E  E     E  E  E  Q.     E  E     E  Q.     Q    E  E   
--------2--3--5--3--------|------------------------|-----------------------|
-----0--------------7-----|--1-----0--1------1-----|--0--1-----------0-----|
-----------------------7--|-----2---------------2--|------------2----------|
--------------------------|-----------3------------|-----3-----------------|
--------------------------|---------------------0--|-----------------------|
--2-----0-----2-----5-----|--0---------------------|-----------------------|


  E  E  E  Q.     E  E     E  E  E  E  E  E  Q       Q    E  Q    E  Q     
------------------------|-----0--------------0----|-----------------------|
--1-----0--1------1-----|--0-----------1----------|--3--------------------|
-----2---------------2--|-----------------0-------|-----------------------|
-----------3------------|--------0-----0----------|----------2------------|
------------------------|-------------------------|-------2-------2-------|
--3---------------3-----|-----5-----5-------------|--2---------------2----|


  E  E  E  E  E  E  E  E     E  E  E  Q    E  Q       E  E  E  E  E  E  E  E   
--------------------------|------------------------|--------------------------|
--------------------------|--3---------------------|--------------------------|
-----------0--2--0--5-----|------------------------|--------------2--0--------|
--------4-----------------|--------0--2------------|--------0-----------0-----|
-----2--------------------|-----2----------2-------|-----2-----2-----------2--|
--2--------------------2--|--2----------------2----|--2-----------------------|


  E  E  E  Q.     E  E     E  Q.     Q    Q       E  E  E  Q.     E  E   
--0---------------0-----|----------------------|------------------------|
--------0--1------------|--0--1-----------0----|--1-----0--1------1-----|
-----2-----2---------2--|-----2------2----0----|-----2---------------2--|
------------------------|----------------------|------------------3-----|
------------------------|------------0----2----|-----------3------------|
--0--------0------0-----|-----0----------------|--3---------------------|


  E  E  E  E  E  E  Q       Q    E  Q    E  Q       E  E  E  E  E  E  E  E   
-----0--------------0----|-----------------------|--------------------------|
--0-----------1----------|--3--------------------|--------------------------|
-----------------0-------|-----------------------|-----------0--2--0--5-----|
--------0-----0-----2----|----------2------------|--------4-----------------|
-------------------------|-------2-------2-------|-----2--------------------|
-----5-----5-------------|--2---------------2----|--2--------------------2--|


  E  E  E  Q    E  Q       E  E  E  E  E  E  E  E     E  E  E  E  H         
------------------------|--------------------------|--5--------------------|
--3---------------------|--------------------------|-----------------------|
------------------------|--------------2--0--------|-----------0--2--------|
--------0--2------------|--------0-----------0-----|--------3--------------|
-----2----------2-------|-----2-----2-----------2--|-----3-----------------|
--2----------------2----|--2-----------------------|--3--------------------|


  E  E  E  E  Q     Q        E  E  E  E  H            E  E  E  E  E  E  E  E   
--L-----7-----8----10----|--12--------------------|--10-----------8-----------|
-------------------------|---------------0--------|---------------------------|
-----------0-------------|---------0--------------|---------0--------------0--|
--------3-----7----------|------0-----7-----------|------0-----7--------0-----|
-----3-------------------|------------------------|---------------------------|
--3----------------------|------------------------|------------------5--------|


  E  E  E  E  H           E  E  E  E  Q    Q       E  E  E  E   E  E   E  E   
--7--------------------|--L----------------5----|--7-------------------------|
--------------0--------|--------------0---------|----------------------------|
-----------0-----------|-----------0------------|----------------------------|
-----------------------|--------2---------------|--------7--9--10------------|
--------7--------------|-----2------------------|-----7-------------------7--|
-----9-----------------|--2---------------------|--7---------------7--10-----|


                                         NH                                     
  E  E  E  E  E  E  E  E     Q    Q      Q     Q        Q     Q     Q     Q     
--------------------------|--5----8-----------13----|--12----------------------|
--------------0-----------|-------------------------|--------------10----12----|
--------0--2--------------|-------------<5>---------|--------12----------------|
-----0-----------0--------|-------------------------|--------------------------|
--------------------2-----|--3----------------------|--------------------------|
--5--------------------5--|-------------------------|--10----------------------|


              NH                                                   NH          
  Q    Q      Q     Q        Q     Q     Q     Q       Q    Q      Q     Q     
--5----8-----------13----|--10----------------------|-------7-----------13----|
-------------------------|--------12----------12----|--8----------------------|
-------------<5>---------|--------------12----------|-------------<5>---------|
-------------------------|--------------------------|-------------------------|
--5----------------------|--10----------------------|--7----------------------|
-------------------------|--------------------------|-------------------------|


   Q    Q     Q    Q        Q    Q    Q    Q        Q     Q     Q     Q     
--12---------------7----|--10----8----7----8----|--12----------------------|
--------8----10---------|-----------------------|--------12----10----12----|
------------------------|-----------------------|--------------------------|
------------------------|-----------------------|--------------------------|
---7--------------------|---0-------------------|--10----------------------|
------------------------|-----------------------|--------------------------|


  E  E  E  E  H           E  E  E  E  Q     Q        E  E  E  E  H         
--5--------------------|--L-----7-----8----10----|--12--------------------|
-----------------------|-------------------------|---------------0--------|
-----------0--2--------|-----------0-------------|---------0--------------|
--------3--------------|--------3-----7----------|------0-----7-----------|
-----3-----------------|-----3-------------------|------------------------|
--3--------------------|--3----------------------|------------------------|


   E  E  E  E  E  E  E  E     E  E  E  E  H           E  E  E  E  Q    Q     
--10-----------8-----------|--7--------------------|--L----------------5----|
---------------------------|--------------0--------|--------------0---------|
---------0--------------0--|-----------0-----------|-----------0------------|
------0-----7--------0-----|-----------------------|--------2---------------|
---------------------------|--------6--------------|-----2------------------|
------------------5--------|-----9-----------------|--2---------------------|


  E  E  E  E   E  E   E  E     E  E  E  E  E  E  E  E     E  E  E  Q.     E  E   
--7-------------------------|-----------------------0--|------------------------|
----------------------------|--------------0--1--3-----|--1-----0--1------1-----|
----------------------------|--------0--2--------------|-----2---------------2--|
--------7--9--10------------|-----0--------------------|-----------3------------|
-----7-------------------7--|--------------------------|---------------------0--|
--7---------------7--10-----|--5-----------------------|--0---------------------|


  E  Q.     Q    E  E     E  E  E  Q.     E  E     E  E  E  E  E  E  Q     
-----------------------|------------------------|-----0--------------0----|
--0--1-----------0-----|--1-----0--1------1-----|--0-----------1----------|
------------2----------|-----2---------------2--|-----------------0-------|
-----3-----------------|-----------3------------|--------0-----0----------|
-----------------------|------------------------|-------------------------|
-----------------------|--3---------------3-----|-----5-----5-------------|


  Q    E  Q    E  Q       E  E  E  E  E  E  E  E     E  E  E  Q    E  Q     
-----------------------|--------------------------|------------------------|
--3--------------------|--------------------------|--3---------------------|
-----------------------|-----------0--2--0--5-----|------------------------|
----------2------------|--------4-----------------|--------0--2------------|
-------2-------2-------|-----2--------------------|-----2----------2-------|
--2---------------2----|--2--------------------2--|--2----------------2----|


  E  E  E  E  E  E  E  E     E  E  E  Q.     E  E     E  Q.     Q    Q     
--------------------------|--0---------------0-----|----------------------|
--------------------------|--------0--1------------|--0--1-----------0----|
--------------2--0--------|-----2-----2---------2--|-----2------2----0----|
--------0-----------0-----|------------------------|----------------------|
-----2-----2-----------2--|------------------------|------------0----2----|
--2-----------------------|--0--------0------0-----|-----0----------------|


  E  E  E  Q.     E  E     E  E  E  E  E  E  Q       Q    E  Q    E  Q     
------------------------|-----0--------------0----|-----------------------|
--1-----0--1------1-----|--0-----------1----------|--3--------------------|
-----2---------------2--|-----------------0-------|-----------------------|
------------------3-----|--------0-----0-----2----|----------2------------|
-----------3------------|-------------------------|-------2-------2-------|
--3---------------------|-----5-----5-------------|--2---------------2----|


                             ^                          
  E  E  E  E  E  E  E  E     W                          
--------------------------|-------------------|-------||
--------------------------|--3----------------|-------||
-----------0--2--0--5-----|--4----------------|-------||
--------4-----------------|--4----------------|-------||
-----2--------------------|-------------------|-------||
--2--------------------2--|--2----------------|-------||




Duration Legend
---------------
W - whole
H - half
Q - quarter
E - 8th
S - 16th
. - note dotted


Tablature Legend
----------------
NH - natural harmonic
^ - brush up
v - brush down
Login or Register to remove this ad.

3 comments on Another Medium

)

5

very nice

how you doin? wanna go for

how you doin? wanna go for some nice cream sometime?

Is it hot in here or is it just me?

5

nice work Johnbie.