Ads

Boss Theme 2 (Ufouria: The Saga) Guitar Tab

Submitted: Feb 05, 2014 by TraceTheKriken

0
Download | Listen
Game: Ufouria: The Saga
Composer(s): Nobuyuki H, About SS, Kodaka San
Style: Alternate picking, Transcription

AutoScroll: Slow | Medium | Fast
Soundtrack: Boss 2
Game: Ufouria The Saga
Composer: Nobuyuki H, About SS, Kodaka San
Tabber: TraceTheKriken
Date: 5th February 2014

BPM: 180

Pattern 1:

e||----------------|----------------|
B||----------------|----------------|
G||----------------|----------------|
D||--3-5-3---3-5-6-|L-5-3---3-------|
A||5-------5-------|------5---5-3-4-|
E||----------------|----------------|

Pattern 2:

e||----------------|----------------|----------------|----------------|
B||----------------|----------------|----------------|----0-----1---2-|
G||----------------|----------------|----------------|----------------|
D||----------------|--------3---5---|----------------|----------------|
A||5---5---5---3-5-|L-5-3-5---5---3-|5---5---5---3-5-|L-2---2-3---4---|
E||----------5-----|----------------|----------5-----|----------------|
Login or Register to remove this ad.