Ads

Ending Theme (Lords of Thunder) Guitar Tab

Submitted: Sep 15, 2008 by DSheltonator (Last updated: Jun 25, 2010)

5
Average: 5 (3 votes)
Download | Listen
Game: Lords of Thunder
Composer(s): Unknown
Style: 2 or more instruments, Transcription

AutoScroll: Slow | Medium | Fast
                        Lords of Thunder - Ending Theme                         


                               Tabbed by DSheltonator (czethros.livejournal.com)
Ending Theme
Lords of Thunder
T's Music/Groove King
Tabbed by DSheltonator
6/22/2010

See .zip file for backing track!


Lead Guitar



             Q.      Q.          H.                Q.      Q       E   
E||-------|------------------|-----------------|----------------------|
B||-------|---------13b------|---L~------------|---L------13br----11--|
G||-------|------------------|-----------------|----------------------|
D||-------|------------------|-----------------|----------------------|
A||-------|------------------|-----------------|----------------------|
E||-------|------------------|-----------------|----------------------|


   H.                H.                Q.      Q.           H         Q      
-----------------|-----------------|--15------14br------|---L--------13-----|
--13b------------|---L~------------|--------------------|------------13b----|
-----------------|-----------------|--------------------|-------------------|
-----------------|-----------------|--------------------|-------------------|
-----------------|-----------------|--------------------|-------------------|
-----------------|-----------------|--------------------|-------------------|


   H.               H         E   E         H.             
---L------------|---L---------L------|--------------------|
---L------------|---L---------L--11--|--11g13~------------|
----------------|--------------------|--------------------|
----------------|--------------------|--------------------|
----------------|--------------------|--------------------|
----------------|--------------------|--------------------|


   E   H           E      Q.      Q.         Q.      Q.        
----------------------|------------------|--------------------|
---L--10br---------L--|--10--------------|--------------------|
----------------------|----------12------|--11------12br------|
----------------------|------------------|--------------------|
----------------------|------------------|--------------------|
----------------------|------------------|--------------------|


   H         E   E      E  E   E   Q       S S     Q.      E  E  E   
--------------------|--------------------------|--------------------|
--------------------|--------------------------|--------------------|
---L----------------|--------------------------|--------------------|
------------13--12--|--10--8--10--10br-----L-8-|--------------7--8--|
--------------------|--------------------------|--10------10--------|
--------------------|--------------------------|--------------------|


   Q       Q    Q       S   Q     S Q       E     H.             
---------------------|-------------------------|----------------|
---------------------|-------------------------|----------------|
---------------------|-------------------------|----------------|
--10br-----L----8----|--8h-10-----L-7br--------|----------------|
---------------------|---------------------10--|--8~------------|
---------------------|-------------------------|----------------|


    Q.      E  E  E      Q       Q    Q         Q     Q     Q      
---------------------|---------------------|----------------------|
---------------------|---------------------|----------------------|
---------------------|---------------------|---------12----11b----|
---------------7--8--|--10br-----L----8----|--/12-----------------|
--/10------10--------|---------------------|----------------------|
---------------------|---------------------|----------------------|


   H.                Q     E   Q     E      H           E   E   
-----------------|----------------------|----------------------|
-----------------|--11----10--11----13--|--13br---------L--11--|
--11~------------|----------------------|----------------------|
-----------------|----------------------|----------------------|
-----------------|----------------------|----------------------|
-----------------|----------------------|----------------------|


      Q.      Q       E      H           E   E      Q.      E    E    E   
-------------------------|----------------------|------------------------|
--11g13------10br--------|----------------------|----------10h--11p--10--|
---------------------12--|--10~-------------10--|--12--------------------|
-------------------------|-------------/12------|------------------------|
-------------------------|----------------------|------------------------|
-------------------------|----------------------|------------------------|


   H           E   E      S   S  H          E      E    E  E   E  E   E    
----------------------|------------------------|--------------------------|
--11br---------L--10--|--11p-10----------------|--------------------------|
----------------------|---------12~---------L--|---L----------------------|
----------------------|------------------------|------------------8--10b--|
----------------------|------------------------|-----------8--10----------|
----------------------|------------------------|------/10-----------------|


                                        |--3-|               |-3-|      
  H         E   E     Q    E   E   E    S  S S    Q    E  E  S S S E    
-------------------|---------------------------|-----------------------|
-------------------|---------------------------|-----------------------|
-------------------|--7----8--10---------------|-----------------------|
--8~--------L--10--|--------------10br--8-10-8-|--7--------------------|
-------------------|---------------------------|-------8---------------|
-------------------|---------------------------|----------8--6-8-6-5~--|


                       |-3-|           |-3-|            
  Q.     E    E  E     S S S  S S S  S S S S  S S S  S  
--------------------|----------------------------------|
--------------------|----------------------------------|
--------------------|----------------------------------|
--------------------|------------------7-8-7----7-8-10-|
-----------------8--|--7-8-7----7-8-10-------10--------|
--L---------/10-----|--------10------------------------|


  |-3-|           |--3-|                                      
  S S S  S S S  S S  S S  S S  S  S     Q       S  S  Q.      
------------------------------------|------------------------|
------------------8-10-8----8-10-11-|--11br-----L-10-11------|
--7-8-7----7-8-10--------10---------|------------------------|
--------10--------------------------|------------------------|
------------------------------------|------------------------|
------------------------------------|------------------------|


    E    E  E   Q       S S     Q.     E   E  E      E  E   E   Q      S     S  
----------------------------|--------------------|-------------11b----11pbr--L-|
----------------------------|--------------------|--11--8--11------------------|
--/12-----------------------|----------9--12--9--|-----------------------------|
-------\10--8--10br-----L-8-|--11----------------|-----------------------------|
----------------------------|--------------------|-----------------------------|
----------------------------|--------------------|-----------------------------|


   Q.      E    E   S  S      Q.      Q       E      H.              
--10~--------------10----|--/14------15br----14--|--17b~------------|
--------------/10-----10-|-----------------------|------------------|
-------------------------|-----------------------|------------------|
-------------------------|-----------------------|------------------|
-------------------------|-----------------------|------------------|
-------------------------|-----------------------|------------------|


                                                    TP TP TP TP TP  TP TP TP TP 
   E   Q      Q       E      Q       E   Q.         E  E  E  E  S.  S  T  T  T  
--15--18b----18br----17--|--17br----14--14~------|--2--3--5--6--8--10-11-13-14-|
-------------------------|-----------------------|-----------------------------|
-------------------------|-----------------------|-----------------------------|
-------------------------|-----------------------|-----------------------------|
-------------------------|-----------------------|-----------------------------|
-------------------------|-----------------------|-----------------------------|


   Q.         Q.            Q.      Q.            Q.         Q.         
--14pbr------14pb~------|---L------14pbr------|--14pbr------14pb~------|
------------------------|---------------------|------------------------|
------------------------|---------------------|------------------------|
------------------------|---------------------|------------------------|
------------------------|---------------------|------------------------|
------------------------|---------------------|------------------------|


                                                            W  
   Q.      E.      S  E         E   E.      E.      E.      S  
---L------14pbr----L-14pbr--|---L--14pbr---14pbr---14pbr---15-|
----------------------------|---------------------------------|
----------------------------|---------------------------------|
----------------------------|---------------------------------|
----------------------------|---------------------------------|
----------------------------|---------------------------------|


   Just increase speed/attack/whammy vibrato                          
   W                                         W   W  W   W  W      W   
                                                 3      3      3      
   E                                         E   S  E   S  E   S  E   
---L----------------------------------------15---L-15---L-15---L-15--|
---------------------------------------------------------------------|
---------------------------------------------------------------------|
---------------------------------------------------------------------|
---------------------------------------------------------------------|
---------------------------------------------------------------------|


   W   W   W   W   W   W   W   W                                       
           |---3---|   |---3---|                |--3--|                
   E   E   E   E   E   E   E   E      Q.        S  S  S  S  S  S. T    
--15--15--15--15--15--15--15--15--|--15br-----------------------------|
----------------------------------|------------15-18-15----15---------|
----------------------------------|---------------------17----17-17br-|
----------------------------------|-----------------------------------|
----------------------------------|-----------------------------------|
----------------------------------|-----------------------------------|


   S. S  Q      S. S  S  S  S     S  S  S  S  Q       E.   S  
------------------14----17----|--20----17-20-20br-----L---18-|
---------------------15----15-|-----15-----------------------|
---L-15-17b-----L-------------|------------------------------|
------------------------------|------------------------------|
------------------------------|------------------------------|
------------------------------|------------------------------|


        3       |--3--|      |--3--|      3  
   E.   T  E    S  S  S  S   S  S  S  S   S  
---------------15-----------15-----------15-|
--20----L---------18-15--------18-15--------|
----------17b-----------17b----------17b----|
--------------------------------------------|
--------------------------------------------|
--------------------------------------------|


   3  3      |--3--|      |--3--|  |--3--|  3                               
   S  S  S   S  S  S  S   S  S  S  S  S  S  S  S  S     Q.      E   E   E   
------------15--------------------------------------|----------------------|
--18-15--------18-15--------15-13-------------------|------------------11--|
--------17b----------17b--L-------15-12-------------|--12------12--14------|
----------------------------------------15-12-------|----------------------|
----------------------------------------------15-13-|----------------------|
----------------------------------------------------|----------------------|


   Q       Q     Q        S   Q     S  Q       E   
----------------------|---------------------------|
--13br-----L----11----|--11h-13-----L-10br--------|
----------------------|-----------------------12--|
----------------------|---------------------------|
----------------------|---------------------------|
----------------------|---------------------------|


   T   T   Q      S  E    E   E         Q.      E   E   E   
---------------------------------|-------------------------|
---------------------------------|-------------10--11--13--|
--10h-12p-10~-----L--L-------10--|--10g12------------------|
------------------------/12------|-------------------------|
---------------------------------|-------------------------|
---------------------------------|-------------------------|


                                3       3        3                           
   Q       S  Q       S  E      Q.      Q.       Q.           H.             
----------------------------|--15------14b------14pb------|--14~------------|
--13br-----L-13br-----L-11--|-----------------------------|-----------------|
----------------------------|-----------------------------|-----------------|
----------------------------|-----------------------------|-----------------|
----------------------------|-----------------------------|-----------------|
----------------------------|-----------------------------|-----------------|


   Q     E   Q     E      Q.       Q       E         Q.      Q       E   
--18----17--18----20--|--20b------20br----18--|--18g20------17br--------|
----------------------|-----------------------|---------------------20--|
----------------------|-----------------------|-------------------------|
----------------------|-----------------------|-------------------------|
----------------------|-----------------------|-------------------------|
----------------------|-----------------------|-------------------------|


   H           E   E         Q.      E    E    E      Q.       Q        E   
----------------------|-------------17h--18p--17--|--18b------18pbr----17--|
--18~-------------18--|--18g20--------------------|------------------------|
-------------/19------|---------------------------|------------------------|
----------------------|---------------------------|------------------------|
----------------------|---------------------------|------------------------|
----------------------|---------------------------|------------------------|


   S   S  Q.       Q          E   Q       E   Q          H           E   S  S  
--18p-17----------17br----|--------------------------|------------------------|
---------20~--------------|--18--16br----------------|------------------------|
--------------------------|--------------19--17br----|--15~-------------15----|
--------------------------|--------------------------|-------------/15-----15-|
--------------------------|--------------------------|------------------------|
--------------------------|--------------------------|------------------------|


   Q     E   E   E.     S     Q.      E.     S  S  S  
--------------------------|----------17br------------|
--15----16--18--18br---16-|--18-------------18-------|
--------------------------|--------------------17-15-|
--------------------------|--------------------------|
--------------------------|--------------------------|
--------------------------|--------------------------|


   |--3--|                                                  |--3--|  
   S  S  S  Q.       E   E      T   T   Q      S  E   S  S  S  S  S  
----------------------------|---------------------------------------|
----------------------------|---------------------------------------|
--14-15-14------------------|------------------------------14-17-14-|
-----------15-----------15--|--15h-17p-15~-----L-----15-17----------|
-------------------/17------|--------------------17-----------------|
----------------------------|---------------------------------------|


            |--3--|                                                       
   S  S  S  S  S  S  S  S  S  S  S  S S     E     S  Q      S  E.      S  
-----------------------------15-17-17---|--17br--15-17b-----L-17pbr---15-|
-----------15-18-15----15-18------------|--------------------------------|
-----14-17----------17------------------|--------------------------------|
--17------------------------------------|--------------------------------|
----------------------------------------|--------------------------------|
----------------------------------------|--------------------------------|


                             |--3--|          |--3--|      
   S  H          E.      E   S  S  S  E   E   S  S  S  E   
--17-15~---------L---|--18--15-18-15-----15--12-15-12-----|
---------------------|---------------17---------------14--|
---------------------|------------------------------------|
---------------------|------------------------------------|
---------------------|------------------------------------|
---------------------|------------------------------------|


      |--3-|        |-3-|                                     
   E  S  S S  E  E  S S S E       Q     E   S  S  S  S  S  S  
--12--9-12-9-----9--6-9-6-----|------------------10----11----|
-------------11-----------8S--|--10----10--13-10----10----10-|
------------------------------|------------------------------|
------------------------------|------------------------------|
------------------------------|------------------------------|
------------------------------|------------------------------|


   Q.        E   E     S  S     Q.      E   S  S  S  S  
--12br------10--------------|--------------------------|
----------------13br--11-13-|--11----------------15-18-|
----------------------------|--------------15-17-------|
----------------------------|----------17--------------|
----------------------------|--------------------------|
----------------------------|--------------------------|


   S  S  S  S  S  S  E     E   E      Q.        E      E      E      
-----15----17----17-17br---L--15--|--19b~------19pb~--19pb~--19pb~--|
--15----15----15------------------|---------------------------------|
----------------------------------|---------------------------------|
----------------------------------|---------------------------------|
----------------------------------|---------------------------------|
----------------------------------|---------------------------------|


   Q.        E   E   E       Q    Q      E  E       Q.     E   E   E   
--19pb~-----------------|----------------------|----------------------|
------------------------|----------------------|----------------------|
--------------------10--|--/12---------/15-----|------------------10--|
----------------12------|--/12---------/15-----|--/15---------12------|
------------------------|----------------------|--/15-----------------|
------------------------|----------------------|----------------------|


    Q    Q      E  E       Q.     Q.         E   E   E   E   E   S.   T  
----------------------|------------------|------------------------------|
----------------------|------------------|------------------------------|
--/12-----------------|------------------|--------------12--14--14br-12-|
--/12---------/15-----|--/14-------------|------13--15------------------|
--------------/15-----|--/15-------------|--13--------------------------|
----------------------|------------------|------------------------------|


         PH                                                            
   E     Q.      E   E       Q    Q      E  E       Q.     E   E   E   
------------------------|--------------/18-----|----------------------|
------------------------|--------------/18-----|--/18-----------------|
--14--<>14----------10--|--/12-----------------|--/17-------------10--|
----------------12------|--/12-----------------|--------------12------|
------------------------|----------------------|----------------------|
------------------------|----------------------|----------------------|


    Q    Q      E  E       Q.     Q.         E   S  S  Q      E   T  S  T  
----------------------|------------------|--------------------------------|
--------------/18-----|--/17-------------|------16----18br----L---L-16-18-|
--/12---------/17-----|--/17-------------|--15-----15---------------------|
--/12-----------------|------------------|--------------------------------|
----------------------|------------------|--------------------------------|
----------------------|------------------|--------------------------------|


   H.                E   S  S  S  S  E   E    E      H          E   E   
-----------------|------13----15----17--17b--17--|--17~----------------|
--16~------------|--13-----13----13--------------|---------------------|
-----------------|-------------------------------|-----------------10--|
-----------------|-------------------------------|-------------12------|
-----------------|-------------------------------|---------------------|
-----------------|-------------------------------|---------------------|


    Q    Q      E  E       H.                H.                            
--------------/18-----|------------------|----------------|---------------|
--------------/18-----|--/18~------------|---L------------|---------------|
--/12-----------------|--/17-------------|----------------|---------------|
----------------------|------------------|----------------|---------------|
----------------------|------------------|----------------|---------------|
----------------------|------------------|----------------|---------------|


   E   E   E   E   E   E      H.              
--13--14--15--18--17--16--|--15~------------||
--------------------------|-----------------||
--------------------------|-----------------||
--------------------------|-----------------||
--------------------------|-----------------||
--------------------------|-----------------||

Login or Register to remove this ad.