Ads

Cosmolagoon (Solo) (Trinity Universe) Guitar Tab

Submitted: Nov 16, 2011 by Caldron

0
Download | Listen
Game: Trinity Universe
Composer(s): Haruka Shimotsuki
Style: Alternate picking, Artificial harmonics, Fingerstyle, Pinch harmonics, Transcription, Tremolo

This song is also called Opening Theme

AutoScroll: Slow | Medium | Fast
Cosmolagoon                                   
Haruka Shimotsuki


Tab by Caldron


Solo Guitar


First solo starts here:

               H        E  E   E   E      W                 
E||-------|-----------------------12--|---L----------------|
B||-------|--/10--------L--9--10------|--------------------|
G||-------|---------------------------|--------------------|
D||-------|---------------------------|--------------------|
A||-------|---------------------------|--------------------|
E||-------|---------------------------|--------------------|


   H         E   E   E   E     W                     Q     E   E  E   Q     E   
--15b--------L--16--17------|-------------------|------------------------------|
------------------------17--|--L----------------|-------------17-----19----18--|
----------------------------|-------------------|--/18----19-------------------|
----------------------------|-------------------|------------------------------|
----------------------------|-------------------|------------------------------|
----------------------------|-------------------|------------------------------|


  E   E   E   Q       E   E   E      S  S  E   E   Q      S  S  S  S  S  S  
---------16--17br----16--17--19--|--21-22-21--17--17br----L-14-17-16-14----|
--L--19--------------------------|--------------------------------------17-|
---------------------------------|-----------------------------------------|
---------------------------------|-----------------------------------------|
---------------------------------|-----------------------------------------|
---------------------------------|-----------------------------------------|


                                                                          PH    
   S  S  S  S  S  S  S  S  S  S  S  S  Q        E   E   E   Q     Q       E     
--14----------------------------------------|----------------------------------|
-----17-15-14-17-15-14----15-14-------------|--14----------15----14------------|
-----------------------16-------14-13-------|--14--14------14----14----<>16br--|
--------------------------------------14----|----------16----------------------|
--------------------------------------------|----------------------------------|
--------------------------------------------|----------------------------------|


  E   E   E   E   E   E   E   E      Q.       Q     Q     E    
---------------------------------|--17~------16----17----17b--|
---------------------14--15--17--|----------------------------|
--L--14--13--14--16--------------|----------------------------|
---------------------------------|----------------------------|
---------------------------------|----------------------------|
---------------------------------|----------------------------|


  E   E   E   H        E       E   E   E   Q      E      E   E   
--L--16--17--17--------L\--|----------14--16b----16pbr------13--|
---------------------------|------14--------------------17------|
---------------------------|--14--------------------------------|
---------------------------|------------------------------------|
---------------------------|------------------------------------|
---------------------------|------------------------------------|


  E   S   S  E   E   E   E   E   E      Q.        H          E    
--L--16p-13-----13------------------|-----------/14~--------16b--|
------------14------14--------------|----------------------------|
------------------------16--14--13--|--14\-----------------------|
------------------------------------|----------------------------|
------------------------------------|----------------------------|
------------------------------------|----------------------------|


  E      E   S   S   S  S  S  S  S  S  S  S  S  S     W                 
--Lpbr--14--17p-16p-14----14----------------------|--------------------|
-----------------------17----17-15-14-17-15-14----|--------------------|
-----------------------------------------------16-|--14----------------|
--------------------------------------------------|--------------------|
--------------------------------------------------|--------------------|
--------------------------------------------------|--------------------|


  W                                                                             
-------------------|-------------------|-------------------|-------------------|
-------------------|-------------------|-------------------|-------------------|
--L----------------|-------------------|-------------------|-------------------|
-------------------|-------------------|-------------------|-------------------|
-------------------|-------------------|-------------------|-------------------|
-------------------|-------------------|-------------------|-------------------|

...

Second solo:


  Q.     Q.      Q     
----------------------|
----------------------|
----------------------|
---------2s------9----|
----------------------|
----------------------|


   E  E   H.               W                     Q     E   Q     Q     E    
--14-----12-------------|-------------------|---------17--16----17---------|
--14-----15b------------|--L----------------|--/14--------------------17~--|
------------------------|-------------------|------------------------------|
------------------------|-------------------|------------------------------|
------------------------|-------------------|------------------------------|
------------------------|-------------------|------------------------------|


                                               PH             
  H.           E   E     E   S   S   E   E     E   E  E   E   
----------------------|--------------------------------------|
--L------------L\-----|-----14h-15p-14------<>14-------------|
----------------------|-----------------16--------16-----13--|
----------------------|--------------------------------------|
----------------------|--------------------------------------|
----------------------|--------------------------------------|


  E   E   E   H        E      Q.      H         E     Q.      E  E   E   Q     
---------------------------|---------19b--------L--|--L------19-----17--------|
---------------------------|-----------------------|--------------------19----|
--L--14--13----------------|-----------------------|--------------------------|
-------------15--------L\--|-----------------------|--------------------------|
---------------------------|-----------------------|--------------------------|
---------------------------|-----------------------|--------------------------|


  E   E    Q     E   E  E   E     E   Q        Q     E   E   E   
-------------------------------|--------------------------------|
--L\---------------------------|--------------------14--15--17--|
----------------13--14-----13--|--L--14----14g16----------------|
---------/16-------------------|--------------------------------|
-------------------------------|--------------------------------|
-------------------------------|--------------------------------|


                                                             PH  
   H.             E   E     E   S   S  E   E   E   E   E     E   
-------------------------|--------------------------------------|
--17br------------L--14--|--L--15p-14-----14--------------------|
-------------------------|------------16------16--14--13--<>14--|
-------------------------|--------------------------------------|
-------------------------|--------------------------------------|
-------------------------|--------------------------------------|


   H         E   E  E   E      E   E   E   Q     E   E  E    
---------------------------|--------------------------------|
---------------------------|--------------------------------|
--13--------13--14-----16--|---L--14--13--14----13----------|
---------------------------|------------------------14--L\--|
---------------------------|--------------------------------|
---------------------------|--------------------------------|


                      PH                  PH                         
   E   E  E   Q       E  E   E      E     E   E   Q     E   E   E    
--------------------------------|-----------------------------------|
--------------------------------|--------------------------17---L\--|
--------------------------------|------------14--16----13-----------|
--------------------------------|-----------------------------------|
--12--12-----14----<>14-----16--|---L--<>16-------------------------|
--------------------------------|-----------------------------------|


   W                   W                                     
--------------------|-------------------|-------------------|
--14----------------|--L----------------|-------------------|
--------------------|-------------------|-------------------|
--------------------|-------------------|-------------------|
--------------------|-------------------|-------------------|
--------------------|-------------------|-------------------|


                       Q        E   Q     E   E    E    
-------------------|-----------------------------------|
-------------------|--15pbr----17--15----14---L\-------|
-------------------|------------------------------14b--|
-------------------|-----------------------------------|
-------------------|-----------------------------------|
-------------------|-----------------------------------|


         PH      PH                     PH            PH                
   E     Q       Q     E   E  E         E   E   E     Q     Q       E   
----------------------------------|------------------------------------|
------<>14----<>15----14----------|------------------------------------|
---L----------------------16--L\--|--<>14------14--<>13----16\----/14--|
----------------------------------|--------16--------------------------|
----------------------------------|------------------------------------|
----------------------------------|------------------------------------|


  E   E   E   E   S   S   S  S  S  S  S  S     W                 
-------------------------------------------|--------------------|
---------14--15--14h-15p-14----14----------|--------------------|
--L--16---------------------16----16-14-13-|--14----------------|
-------------------------------------------|--------------------|
-------------------------------------------|--------------------|
-------------------------------------------|--------------------|


   Q.      Q.      Q        H         E   E   E   E    
------------------------|------------------------17b--|
----------14------15----|--14--------14--15--17-------|
--16--------------------|-----------------------------|
------------------------|-----------------------------|
------------------------|-----------------------------|
------------------------|-----------------------------|


  Q.         S  S  Q.      S   S   
--Lpbr------17-16-17--------------|
--------------------------14h-15h-|
----------------------------------|
----------------------------------|
----------------------------------|
----------------------------------|


                        PH                      
   Q     S  S   S  S    S  S   T  T  E  S  E    
--------12-------------------------------------|
--17-------15p-14----<>12----------------------|
------------------14------14p-13-12-11----14b--|
-----------------------------------------------|
-----------------------------------------------|
-----------------------------------------------|


                PH    PH                                             
  E   E   E     E     E   E   E  E       E   E  E   Q     E  E   E   
-------------------------------------|------------------------------|
-------------------<>14--------------|------------------------------|
--L--13------<>13--------------------|-------------13----13-----14--|
---------15--------------15----------|--16--16----------------------|
-----------------------------16--L\--|------------------------------|
-------------------------------------|------------------------------|


  E   E  E   Q     E   Q        E   E   E   Q     E   E   E   
----------------------------|--------------------------------|
----------------------14----|--------------------------------|
--L--14-----16----16--------|--------------13--------13--14--|
----------------------------|--16--14--16--------16----------|
----------------------------|--------------------------------|
----------------------------|--------------------------------|


                          W                                              
  E   E   E   E   E   E   Q        W                   W                 
-------------------------------|--------------------|-------------------|
-------------------------14----|--------------------|-------------------|
--L--13--14--16--14--16--------|--14----------------|--L----------------|
-------------------------------|--------------------|-------------------|
-------------------------------|--------------------|-------------------|
-------------------------------|--------------------|-------------------|





Duration Legend
---------------
W - whole
H - half
Q - quarter
E - 8th
S - 16th
T - 32nd
X - 64th
. - note dotted
|-n-|  - n-tuplets


Tablature Legend
----------------
L - tied note
x - dead note
g - grace note
(n) - ghost note
> - accentuded note
NH - natural harmonic
AH - artificial harmonic
TH - tapped harmonic
SH - semi harmonic
PH - pitch harmonic
h - hammer on
p - pull off
b - bend
br - bendRelease
pb - preBend
pbr - preBendRelease
brb - bendReleaseBend
\n/ - tremolo bar dip
\n - tremolo bar dive
-/n - tremolo bar Release up
/n\ - tremolo bar inverted dip
/n - tremolo bar return
-\n - tremolo bar Release down
S - shift slide
s - legato slide
/ -  slide into from below or out of upwards
\ -  slide into from above or out of downwards
~ - vibrato
W - wide vibrato
tr - trill
TP - tremolo picking
T - tapping
S - slap
P - pop
< - fade in
^ - brush up
v - brush down
Login or Register to remove this ad.