Ads

Main Theme (Trine) Guitar Tab

Submitted: Oct 23, 2009 by kenor

5
Average: 5 (2 votes)
Download | Listen
Game: Trine
Composer(s): Ari Pulkkinen
Style: Arrangement, Fingerstyle

AutoScroll: Slow | Medium | Fast
Main Theme
~Trine~
Composed by: Ari Pulkkinen
Arranged by: kenor

Rhythm: 4/4 metrum


     E  E  E  E  E  E  E  E     E  E  E  E  E  E  E  E     E  E  E  E  E  E  E  E   
E||--------------------------|--------------------------|--------------------------|
B||-----------1--0--1--------|-----------1--0--1--------|-----------1--0--1--------|
G||--------2-----------2-----|--------2-----------2-----|--------2-----------2-----|
D||-----2-----------------2--|-----2-----------------2--|-----2-----------------2--|
A||--0-----------------------|--0-----------------------|--0-----------------------|
E||--------------------------|--------------------------|--------------------------|


     E  E  E  E  E  E  E  E     E  E  E  E  E  E  E  E     E  E  E  E  E  E  E  E   
E||--------------------------|--------------------------|--------------------------|
B||-----------1--0--1--------|--------------0-----------|--1--------1--0--1-----3--|
G||--------2-----------2-----|--2-----------------2-----|--------2-----------2--0--|
D||-----2-----------------2--|-----2-----2-----2-----2--|-----2--------------------|
A||--0-----------------------|--0-----0-----0-----------|--0-----------------------|
E||--------------------------|--------------------------|--------------------------|


     E  E  E  E  E  E  E  S S    E  E  E  E  E  E  E  E     E  E  E  E  E  E  E  S S  
E||--0--------0-----0-----3-2-|--0--------0-----0-----2--|--3--------------------2-0-|
B||--------1-----3-----1------|--------1-----3-----1-----|---------------------------|
G||-----0-----------------0---|-----0-----------------0--|-----------0-----0---------|
D||---------------------------|--------------------------|--------2-----4-----2------|
A||--3------------------------|--3-----------------------|-----2-----------------2---|
E||---------------------------|--------------------------|--0------------------------|


     E  E  E  E  E  E  E  S S    E  E  E  E  E  E  E  E     E  E  E  E  E  E  E  E   
E||---------------------------|--------------------------|-----------2--0--2--------|
B||--3--------0-----0-----1-0-|--------------------------|--------3-----------3--0--|
G||--------0-----2-----0------|--2-----------------------|-----2--------------------|
D||-----0-----------------0---|--0-----0--4--2--4--0-----|--0-----------------------|
A||---------------------------|-----0-----------------0--|-----------------------0--|
E||--3------------------------|--------------------------|--------------------------|


     E  E  E  E  E  E  E  S S    E  E  E  E  E  E  E  E     E  E  E  E  E  E  E  E   
E||---------------------------|--------------------------|--------------------------|
B||--1--------------------0---|-----------------------0--|--------0--1-----1--------|
G||-----------2--0--2-------2-|--0--------0-----0--2-----|--2-----------------2-----|
D||--------3-----------3------|--------2-----4-----2-----|-----2--------2--------2--|
A||-----3-----------------3---|-----2--------------------|--0-----------------------|
E||--1------------------------|--0-----------------------|--------------------------|


     E  E  E  E  E  E  E  S S    E  E  E  E  E  E  E  S S    E  E  E  E  E  E  E  E   
E||---------------------------|---------------------------|--------------------------|
B||-----------1--0--1-------0-|--1--------------------0---|-----------0--------0-----|
G||--------2-----------2--2---|-----------2--0--2-------2-|--0-----------2--------0--|
D||-----2-----------------2---|--------3-----------3------|--------0--------0--------|
A||--0------------------------|-----3-----------------3---|-----2--------------2-----|
E||---------------------------|--1------------------------|--3-----------------------|


     E  E  E  E  E  E  E  E     E  E  E  E  E  E  E  E     E  E  E  E  E  E  E  E   
E||--------------------------|--------------------------|--------------------------|
B||--------------1--0--------|-----------1--0--1--------|--------------0-----------|
G||--2-----------------2-----|--2-----2--------------2--|--2-----------------2-----|
D||-----2-----2-----------2--|-----2--------------2-----|-----2-----2-----2-----2--|
A||--0-----0-----------------|--0-----------------------|--0-----0-----0-----------|
E||--------------------------|--------------------------|--------------------------|


     E  E  E  E  E  E  E  E     E  E  E  E  E  E  E  S S    E  E  E  E  E  E  E  E   
E||--------------------------|--0--------0-----0-----3-2-|--0--------0-----0-----2--|
B||--1--------1--0--1-----3--|--------1-----3-----1------|--------1-----3-----1-----|
G||--------2-----------2--0--|-----0-----------------0---|-----0-----------------0--|
D||-----2--------------------|---------------------------|--------------------------|
A||--0-----------------------|--3------------------------|--3-----------------------|
E||--------------------------|---------------------------|--------------------------|


     E  E  E  E  E  E  E  S S    E  E  E  E  E  E  E  S S    E  E  E  E  E  E  E  E   
E||--3--------------------2-0-|---------------------------|--------------------------|
B||---------------------------|--3--------0-----0-----1-0-|--------------------------|
G||-----------0-----0---------|--------0-----2-----0------|--2-----------------------|
D||--------2-----4-----2------|-----0-----------------0---|--0-----0--4--2--4--0-----|
A||-----2-----------------2---|---------------------------|-----0-----------------0--|
E||--0------------------------|--3------------------------|--------------------------|


     E  E  E  E  E  E  E  E     E  E  E  E  E  E  E  S S    E  E  E  E  E  E  E  E   
E||-----------2--0--2--------|---------------------------|--------------------------|
B||--------3-----------3--0--|--1--------------------0---|--------------------0-----|
G||-----2--------------------|-----------2--0--2-------2-|--0--------0-----2-----0--|
D||--0-----------------------|--------3-----------3------|--------2-----2-----------|
A||-----------------------0--|-----3-----------------3---|-----2--------------------|
E||--------------------------|--1------------------------|--0-----------------------|


                                 ^                                                   
     E  E  E  E  E  E  E  S S    E  E  E  E  E  E  E  E     E  E  E  E  E  E  E  E   
E||--------------0----------0-|--------------------------|--------------------------|
B||--------0--1-----1-----3---|--3--------------------0--|--1-----------------0--1--|
G||--2-----------------2------|--2-----------2-----2-----|-----------2--0--2--------|
D||-----2-----------------2---|--0--------0-----0--------|--------3-----------------|
A||--0-----------0------------|--------0-----------------|-----3--------------------|
E||---------------------------|-----2--------------------|--1-----------------------|


     E  E  E  E  E  E  E  E     E  E  E  E  E  E  E  E     E  E  E  E  E  E  E  S S  
E||--------------------------|--------------------------|--------------0------------|
B||--0-----------------0-----|-----------2--0--2--------|-----------2-----2-------0-|
G||--------0--------------0--|--2-----2-----------2-----|--------2-----------2--2---|
D||--------2-----2-----------|-----2-----------------2--|-----2-----------------2---|
A||-----2-----2--------------|--0-----------------------|--0------------------------|
E||--0--------------0--------|--------------------------|---------------------------|


     E  E  E  E  E  E  E  E     E  E  E  E  E  E  E  E     E  E  E  E  E  E  E  E   
E||--------------------------|--------------3-----------|--5-----------------------|
B||--1-----------------0--1--|--3--------------------0--|--------------5-----------|
G||-----------2--0--2--------|-----------0--------0-----|-----------6-----6--------|
D||--------3-----------3-----|--------0--------2--------|--------7-----------7-----|
A||-----3--------------------|-----2--------------------|-----7-----------------7--|
E||--1-----------------------|--3-----------0-----------|--5-----------------------|


     ^                  
     W                  
E||-------------------||
B||-------------------||
G||--6----------------||
D||--7----------------||
A||--7----------------||
E||--5----------------||




Legend:
-------
W - whole
E - 8th
S - 16th
^ - brush up
Login or Register to remove this ad.

1 comment on Main Theme

It rocks!

It rocks!