Ungettable (Tree of Savior) Guitar Tab

Submitted: Jun 15, 2016 by TrangOul (Last updated: Jun 15, 2016)

5
Average: 5 (2 votes)
Download | Listen
Game: Tree of Savior
Composer(s): soundTeMP, S.F.A, Questrosound, Kevin, symphonix
Style: Fingerstyle, Transcription, Trill

Click here for a video example.

AutoScroll: Slow | Medium | Fast
'Ungettable'
from Tree of Savior
composed by soundTeMP
arranged by Marcus Kasperski

Standard Tuning|Capo 2

I Moderato
                                             |-3-|        
     Q    E  E  Q    E  E     E  E  E  E  E  S S S E  E   
E||--5----4--2--0----------|-------------------0---------|
B||------------------3--2--|--0-----0--2--3--L---3-2--0--|
G||------------------------|-----3-----------------------|
D||--4----2--0-------------|-----------------4--------1--|
A||-------------4----2--0--|-----------1--2--------------|
E||------------------------|--4--3--4--------------4-----|


1__________________________________________________________________
|                                                |-3-| |-3-|      
| E  S S E  S S E  S S E  S S    E  S S E  S S S S S S S S S S S S  
---------0-------------2--0---|--0------4--2-0---0-----------------|
--2---------3-2-3-----------3-|----------------3---0-2-3-----0-2---|
-----2-------------1----------|--------------------------1-2-------|
------------------------------|-----4----------------------------2-|
------------------------------|------------------------------------|
--0----0-0------0----0-0------|--0----0-0------0-------------------|


____________________ 2__________________________
  W                  |  E  E  E  E  E  E  E  E   
--------------------||-----------2--4--5--------|
--------------------||--2-----------------------|
-------------------*||-----1--2-----------7--6--|
--L----------------*||--4--0--------------------|
--------------------||--------4--2-----4--------|
--L-----------------||--------------4-----6-----|


  |--3--|  |-3|    |--3--|  |-3|                       |--3--|  |--3--|   
  E  E  E  E  Q    E  E  E  E  Q       S S S S S S S S E  E  E  E  E  E   
--------7--L-------------5--L-------|------------------------------------|
--5---------------------------------|--3-0-----2-0-----------------0-----|
-----7--------7----7--6--------6----|------1-------2-1----------------6--|
------------------------------------|--------3---------4--6--7--7--------|
-------------------0----------------|------------------6--------5--------|
--7-----4--L-------------0--L-------|--4---1-----2-L---------------------|


  E    S S Q    E  T T S S S S S    Q    E  E  E  S S E  E   
---------------------------------|--5----4----------4-5-----|
--0--2g0-------------------------|----------7--6--7------2--|
---------2-2---------------------|--------------------------|
-------------------0-2-0---------|--4-----------------------|
-----------0-------------4-2-0---|----------6--4----2-0-----|
--0----------------------------4-|--------------------------|


                                             |--3--|  |--3--|   
  E  E  E  E  E  E  E  E     S S S S S S S S E  E  E  E  E  E   
-----2--------------------|------5-4---------------------------|
--3-----2-----0--3--2-----|----2-----7---0-2-3--2-----------2--|
-----------------------1--|--2---------7-----------1--2--4-----|
-----------4--------------|------------------------------------|
--2-----0-----------------|--------4---------0-----------2-----|
--------------4-----1-----|--2-------4-------------1-----------|


                             |--3--|  |--3--|  |--3--|  |--3--|    
  E  E  S S S S H            E  E  E  E  E  E  E  E  E  E  E  E    
-------------------------|--10-----9--7-----4--5-----2--4---------|
-------------------------|------7---------------------------------|
-------------------------|---------------6--------4--------2--4s--|
--4--7--6-7-6-4-3--------|----------------------------------------|
--3-----4-------4--------|----------------------------------------|
-------------------------|----------------------------------------|


  |---3--|  |-3|                                       
  E  E   E  E  Q    H           Q    E  E  Q    E  E   
-----------------------------|------------------------|
-----------------------------|-------------0----2--3--|
--6--------------------------|-------1--2-------------|
-----4s--6--7----------------|--4---------------------|
---------------8----L--------|--0----2--4-------0--2--|
-----------------------------|-------------4----------|


  E  E  E  S S E  E  Q       Q    E  E  E  E  T T S S S  
--0-----2--0--------------|----------0--2---------------|
-------------3-2--0-------|--2----3--------3--2-3-2-0---|
-----2---------------2----|---------------------------2-|
--------------------------|-------------0--4--2---------|
--4------------0----------|--0----2--4------------------|
------------------4--2----|-----------------------------|


  Q    E  E  E  E  E  E     Q    E  E  E  E  E  E     Q    E  E  E  E  E  E   
-------------------------|--2----3--5--7--0--------|-------0--2--3-----2--0--|
-------------------------|-------------------3--2--|--3-------------4--------|
--2----------------------|-------------0--1--2--3--|-------------------------|
-------------------------|--0----2--4--------------|----------1--2--4--------|
--0-------0--------------|-------------------------|--2----4-----------------|
-------3-----2--3--0--2--|-------------------------|-------------------2--4--|


        |---3--|                 |--3--|  |--3--|                   
  E  E  S S E  E  E  E  E  E     E  E  E  E  E  E  S S S S S S S S  
--------0---------------------|-----2--------0---------------------|
--3-------3-2--0--------------|--3-------------------------------0-|
-----0------------2-----------|-----------6--------4-6-7-----1-2---|
--------4---2--0-----2--0-----|--------4--------4--------3-4-------|
--0---------------4--------4--|--2---------------------------------|
------------------------------|-----------6--------4-------2-------|


                    ^                                      
  |--3--|  |--3--|  tr                                     
  E  E  E  E  E  E  Q       E  E     S S S S H.            
--------------4--5--4(5)----4--2--|--2--------------------||
--2--3--6--7--------6-------------|----------2------------||
----------------------------------|--------3--------------||
--------4-----------6-------------|------4----------------||
-----------6--------4-------------|----4------------------||
--L-------------------------------|--2--------------------||

II Vivace
  |--3--|  |--3--|  |--3--|  |--3--|   
  E  E  E  E  E  E  E  E  E  E  E  E   
--3-----3--2-----0--------------------|
-----2--------2-----3-----2-----------|
-----------------------4-----3--------|
--------------------------------4--2--|
-----------1--------2--------4--------|
--2-----------------------------------|


  |--3--|  |--3--|    |--3--|  |----3----|   
  E  E  E  E  E  E    E  E  E  E    E    E   
--------------------------------------------|
-----------0--------1g2--0-----3--2g3--2g0--|
--------------3-------------3---------------|
--4--3--4--------6--------------------------|
--2----------------------------4------------|
-----------4----------2---------------------|


  |--3--|  |--3--|  |--3--|  |--3--|     |--3--|  |--3--|  |--3--|  |--3--|   
  E  E  E  E  E  E  E  E  E  E  E  E     E  E  E  E  E  E  E  E  E  E  E  E   
--3-----2--0-----0--------------------|--------------------------------------|
-----2--------2-----3-----2-----------|-----------------0--2--3--0--4--5--7--|
-----------------------4-----3--------|--------------3-----------------------|
--------------------------------4--2--|--4--3--4--6--------------------------|
-----------1--------2--------4--2--1--|--2--------------------------6--------|
--2-----------------------------------|-----------4--------2-----------------|


                                                           ^             
  |--3--|  |--3--|  |--3--|  |--3--|     |--3--|  |--3--|  |-3|          
  E  E  E  E  E  E  E  E  E  E  E  E     E  E  E  E  E  E  E  Q    Q     
-----5--7-----------------------------|---------------------------------|
--8--------5--------7--8--------------|--------0--2--3--0---------------|
--------------7--6--------5-----------|--0--2--------------3--4----L----|
-----------------------------7--8--9--|--------------------4------------|
-----------------------------6--------|--------------------4------------|
--0--------6--------7-----------------|--0--------1--------2------------|


  |--3--|  |--3--|  |--3--|  |--3--|   
  E  E  E  E  E  E  E  E  E  E  E  E   
--3--5-----2--3--------2--------------|
--------2-----------5-----2--3--2-----|
-----------------3-----------------4--|
--------------------------------------|
-----------1--------2--------4--------|
--2-----------------------------------|


  |--3--|  |--3--|  |--3--|  |----3----|   
  E  E  E  E  E  E  E  E  E  E    E    E   
------------------------------------------|
--------------------3--5--2--3--2g3--2g0--|
--3--4-----6--7---------------------------|
--------4--------6------------------------|
--2--------------------------4------------|
-----------4--------2---------------------|


                      |-3-| |--3--|     |--3--|  |--3--|  |--3--|  |--3--|   
  S S S S S S S S S S S S S E  E  E     E  E  E  E  E  E  E  E  E  E  E  E   
--3-5-3---2-3-2-----2----------------|--------------------------------------|
--------2-------0-5---5-3-2-0--------|-----------------0--2--3--0--4--5--7--|
-------------------------------2--0--|--------------3-----------------------|
-------------------------------------|--4--3--4--6--------------------------|
----------1-------2---------4--------|--2--------------------------6--------|
--2----------------------------------|-----------4--------2-----------------|


                                                           ^         
  |--3--|  |--3--|  |--3--|  |--3--|               |-3-|             
  E  E  E  E  E  E  E  E  E  E  E  E     S S S S S S S S S H         
-----5--7-----------------------------|-----------------------------|
--8--------5--------7--8--------------|------0-2-3-2-3-2-0-2--------|
--------------7--6--------5-----------|--0-2---------------3--------|
-----------------------------7--8--9--|--------------------4--------|
-----------------------------6--------|--------------------4--------|
--0--------6--------7-----------------|--0-------1---------2--------|


  |--3--|  |--3--|  |--3--|  |--3--|     |--3--|  |--3--|              
  E  E  E  E  E  E  E  E  E  E  E  E     E  E  E  E  E  E  Q    E  E    H
-----5--7-----------5--------0--------|-------------------------------|-----------||
--8--------5-----------8--7-----3--2--|--0--2--3--2--3-----0----------|-----------||
--------------7--6--------------------|-----------------3-------------|-----------||
--------------------0-----------------|-------------------------4--1--|-----------||
--7--------0--------------------------|-----------1--------2----------|-2---------||
-----------------------------3--------|--4----------------------------|-----------||


III Allegro
   Q.     E  E  E  E  E     Q.     E  E  E  E  E   
|--6------6--5--3--------|--6------6--5--3--------|
|------------------6-----|------------------6-----|
|---------------------5--|---------------------5--|
|--3---------------------|--3---------------------|
|------------------------|------------------------|
|------------------------|------------------------|


  E  E  E   E   Q    E  E     Q.     E  E  E  E  E     Q.     E  E  E  E  E   
---------------------------|--6------6--5--3--------|--6------6--5--3--------|
---------------------------|------------------6-----|------------------6-----|
--3--5--7---8---8----7--5--|---------------------5--|---------------------5--|
--5--7--8--10--10----8--7--|--3---------------------|--3---------------------|
---------------------------|------------------------|------------------------|
---------------------------|------------------------|------------------------|


  E  E  E   E   E   S S E   E     E   E   E  E  E  E  E  E   
-------------------------------|----------------------------|
-------------------------------|----------------4--3--1-----|
--3--5--7---8---8--10-8-7------|--7---8--10--------------3--|
--5--7--8--10--10----------10--|--8--10--12--0--------------|
-------------------------------|----------------3--1--0-----|
-------------------------------|-------------------------3--|


  E.  S E.  S H           Q.     E  E  E  E  E     Q.     E  E  E  E  E   
-----------------------|--6------5--3--2--0-----|--6------5--3--2--0-----|
--1---3-1--------------|---------------------3--|---------------------3--|
------------3-3--------|--0---------------------|------------------------|
-----------------------|------------0-----------|------------0-----------|
--------0-----1--------|------------------------|------------------------|
--1--------------------|------------------------|--3---------------------|


  E  E  Q    E  E  Q       Q.     E  E  E  E  E     Q.     E  E  E  E  E   
--0--2--3---------------|--3------1--0-----------|--3------2--0-----------|
-------------0--2--3----|---------------3--1--0--|---------------3--1--0--|
------------------------|------------------------|------------------------|
-----0--2---------------|------------------------|------------0-----------|
--4-------------0--2----|--3---------------------|--3---------------------|
-------------3----------|------------3-----------|------------------------|


  E  E  E  E  E  S S E  E     E  S S E  E  H           E  E  E  E  E  E  E  E   
--------------0----0-2-----|--5--3-2-0--------------|--------0--------0--2-----|
--0--1--3--------4------0--|------------3--2--------|--2--3--------3--------3--|
-----------0---------------|---------0--1--2--------|--0--------2--------------|
---------------------1-----|--2---------------------|-----4--------------------|
--------2-----3------------|------------------------|--------4-----2-----0-----|
--3------------------------|------------------------|--------------------------|


  E  E  E  S S E  E  E  E     E  E  E  S S E  E  E  E   
--5-----3--2-0----------0--|--5-----3--2-0----------0--|
-----3---------3--2--3-----|-----3---------3--2--3-----|
---------------------------|---------------------0-----|
---------------------------|------------------4--------|
--------0------------0-----|--------0------------------|
--3------------3-----------|--3------------3-----------|


       |--3--|             
  Q    E  E  E  H          
-------------------------||
--3----3-----------------||
--2-------2--------------||
--4----------4-----------||
--5-------------5--------||
-------------------------||




Duration Legend
---------------
W - whole
H - half
Q - quarter
E - 8th
S - 16th
T - 32nd
. - note dotted
|-3-|  - triplet


Tablature Legend
----------------
L - tied note
g - grace note
(n) - ghost note
s - legato slide
/ -  slide into from below or out of upwards
tr - trill
^ - brush up
Login or Register to remove this ad.