Luna Ascension (Tower of Heaven) Bass/Guitar Tab

Submitted: Feb 08, 2014 by hslesperance

0
Download | Listen
Game: Tower of Heaven
Composer(s): flashygoodness
Style: 2 or more instruments, Transcription

AutoScroll: Slow | Medium | Fast
Luna Ascension
Tower of Heaven
Composed by flashygoodness
Tabbed by hslesperance
2/8/14

Guitar - Standard Tuning
Bass - Drop C Tuning (CADG)


Such a great soundtrack that never gets old. You can play the game here, but be prepared to die... a lot.
http://www.askiisoft.com/games/tower-of-heaven/


Guitar

     E E  E  Q  E  Q     +E  E E Q  a  E E E   Q.    Q.    Q     +H.       S  S S S
||--------------------|----------------------|----------------|-------------------9-|
||o---------12--------|----------------------|----------------|-----------------9---|
||-----9-11-----9-11--|-(11)---8-9--9h11-8---|-8--------------|--------------11-----|
||--11----------------|------9-------------9-|------11--------|-----------11--------|
||o-------------------|----------------------|------------11--|-(11)----------------|
||--------------------|----------------------|----------------|---------------------|


  a  Q.   Q.    a  Q     Q   E  Q   Q   E    E.  E.  E  E.  E.  E    +W
|-9h11----9----14h16--|-14--19------------|-----------------------|---------|
|---------------------|--------16--17--19-|-16--17--16-----16-----|---------|
|---------------------|-------------------|------------16------18-|-(18)----|
|---------------------|-------------------|-----------------------|---------|
|---------------------|-------------------|-----------------------|---------|
|---------------------|-------------------|-----------------------|---------|


  Q.   E +H       Q.   Q.   a  Q     a H    +E  Q  E   +E  E E E +H
|---------------|-----------------|------------------|------------------|
|---------------|-----------------|------------------|------------------|
|-8----6-(6)----|-9----8----9h11--|------------------|------------------|
|---------------|-----------------|-11p9----(9)------|---------9-(9)----|
|---------------|-----------------|-------------9--7-|-(7)-6-7----------|
|---------------|-----------------|------------------|------------------|


  Q.   Q.   E E   +Q   E  H     S  S    Q.    a  E  +H        Q.    T  T  S  +Q    Q
|-------------7-|-(7)----11----------|-14----12p11-(11)----|-19----18p17p16-(16)--19---|
|-----------7---|------9-------14p12-|---------------------|---------------------------|
|-8----6--------|--------------------|---------------------|---------------------------|
|---------------|--------------------|---------------------|---------------------------|
|---------------|--------------------|---------------------|---------------------------|
|---------------|--------------------|---------------------|---------------------------|

      ~~~~~~~~~~~~~~~~
   a  W           +W           E  E  S  E  E  S  E  E  E   E  E  S  E  E  S  E  S  E  S
|-19h21--------|-(21)--------|---------------------------|-------------------------------|
|--------------|-------------|---------------------------|-------------------------------|
|--------------|-------------|---18-16-18-18-18-18-16-18-|---18-16-18-18-18-18-16-18-18--|
|--------------|-------------|---------------------------|-------------------------------|
|--------------|-------------|---------------------------|-------------------------------|
|--------------|-------------|---------------------------|-------------------------------|

      ~~~~~~~~~~~~~~~~
   a  W           +W           E  E  S  E  E  S  E  E  E    H     H
|-19h21--------|-(21)--------|---------------------------|-23----21\-----||
|--------------|-------------|---------------------------|--------------o||
|--------------|-------------|---18-16-18-18-18-18-16-18-|---------------||
|--------------|-------------|---------------------------|---------------||
|--------------|-------------|---------------------------|--------------o||
|--------------|-------------|---------------------------|---------------||




Bass

    W          W          W          W
||-----------|----------|----------|------|
||o----------|----------|----------|------|
||o-0--------|----------|-4--------|-2----|
||-----------|-8--------|----------|------|


                                         |-3--|  |--3--|
  E. E. E. E. E. S   E. E. E. E. E. S    Q Q  Q  Q  Q  Q   W
|------------------|------------------|------------11-13-|------|
|------------------|------------------|---------11-------|------|
|-0--0--0--0--0--0-|------------------|----9-11----------|------|
|------------------|-8--8--8--8--8--8-|-13---------------|------|


  E. E. E E. E. E   +E. E. E E. E. E   E. E. E E. E. E   E. E. E E. E. E
|-----------------|------------------|-----------------|-----------------|
|-----------------|------------------|-----------------|-----------------|
|-0--0--0-0--0--0-|-(0)-0--0-0--0--0-|-----------------|-4--4--4-2--2--2-|
|-----------------|------------------|-8--8--8-8--8--8-|-----------------|


  E. E. E E. E. E   +E. E. E E. E. E   E. E. E E. E. E   E. E. E E. E. E
|-----------------|------------------|-----------------|-----------------|
|-----------------|------------------|-----------------|-----------------|
|-0--0--0-0--0--0-|-(0)-0--0-0--0--0-|-4--4--4-4--4--4-|-2--2--2-2--2--2-|
|-----------------|------------------|-----------------|-----------------|


  E. E. E E. E. E   E. E. E E. E. E   E. E. E E. E. E   E. E. E E. E. E
|-----------------|-----------------|-----------------|-----------------|
|-----------------|-----------------|-----------------|-----------------|
|-0--0--0-0--0--0-|-2--2--2-2--2--2-|-4--4--4-4--4--4-|-----------------|
|-----------------|-----------------|-----------------|-8--8--8-8--8--8-|


  E. E. E E. E. E   E. E. E E. E. E   H.      +E  S S   W
|-----------------|-----------------|-----------------|-------||
|-----------------|-----------------|-----------------|------o||
|-0--0--0-0--0--0-|-2--2--2-2--2--2-|-4-------(4)-2-4-|------o||
|-----------------|-----------------|-----------------|-1-----||

h - hammer on
p - pull off
~ - vibrato

W - whole
H - half
Q - quarter
E - 8th
S - 16th
T - 32nd
a - acciaccatura
+ - note tied to previous
. - note dotted

Irregular groupings are notated above the duration line
Login or Register to remove this ad.