Wind God Girl (Touhou 9: Phantasmagoria of Flower View) Guitar Tab

Submitted: Nov 28, 2010 by ChelseaRare

5
Average: 5 (3 votes)
Download | Listen
Game: Touhou 9: Phantasmagoria of Flower View
Composer(s): ZUN
Style: Pinch harmonics, Transcription
Series: Touhou

This song is also called Aya Shameimaru's Theme

AutoScroll: Slow | Medium | Fast
Game: Touhou 9: Phantasmagoria of Flower View
      Touhou 9.5: Shoot the Bullet
Song: Wind God Girl (Aya Shameimaru's Theme)
Composer: ZUN
Tabber: Chelsea Intal
October 9, 2010

Tuning: Standard (EADGBe)

Starting key: Ab Maj
Starting tempo: 155 BPM

      |---3---|   |---3---|   |---3---|   |---3---|   
      E   E   E   E   E   E   E   E   E   E   E   E   
E||--------------11----------------------------------|
B||--13--------------11------13----------11----------|
G||------13--10----------12------13--10------12------|
D||----------------------------------------------13--|
A||--------------------------------------------------|
E||--------------------------------------------------|


   |---3---|                               
   E   E   E   E.   E   S  S  S  S  S  E   
--------------11----------------------16--|
--13-------------------13-----------------|
------10--13--------------13-10----15-----|
-------------------15-----------14--------|
------------------------------------------|
------------------------------------------|


  |---3---|   |---3---|                           
  E   E   E   E   E   E   S  S  S  S  S  S  S  S  
--L--13------15-------------16-15-16-15----------|
---------13------16------13-------------17-------|
---------------------15--------------------15----|
----------------------------------------------17-|
-------------------------------------------------|
-------------------------------------------------|
 

                                          Segno
   S  S  E   S  S  E   S  S  E   S S  E      W                 
--------20--------18--------16-------12--|--13----------------|
-----18--------16------------------9-----|--------------------|
--17--------15--------13-15-----12-------|--------------------|
-----------------------------------------|--------------------|
-----------------------------------------|--------------------|
-----------------------------------------|--------------------|


  W                    W                   W                 
--L----------------|--------------------|-------------------|
-------------------|--------------------|-------------------|
-------------------|--10----------------|--L----------------|
-------------------|--------------------|-------------------|
-------------------|--------------------|-------------------|
-------------------|--------------------|-------------------|


Tempo change: 154 BPM
   E   E   E   E   E   E   E   E      E   E   E   E   E   E   E   E   
----------------------------------|----------------------------------|
------13------11------------------|------13------11--------------13--|
--10------------------13------12--|--10------------------13--12------|
----------13------11------10------|----------13------11--------------|
----------------------------------|----------------------------------|
----------------------------------|----------------------------------|


  |---3---|   |---3---|                          
  E   E   E   E   E   E   S  S  S  S  S  S  S S  
------------------------------------------------|
--L------13--11---------------------------------|
-----13----------12------10-13-12-13-12-------0-|
---------------------13-----------------13-10---|
------------------------------------------------|
------------------------------------------------|


   S S E  S S  E  S S E  S S E       E.   E.  E  H         
-------8-------------------------|---------------8--------|
-----9------8-11----6-9----5-8\--|------------9-----------|
--10------8-------6------5-------|--10---10---------------|
---------------------------------|------------------------|
---------------------------------|------------------------|
---------------------------------|------------------------|


  S S  E  E  E   E.   E.  E      E.   E.   E   H           H         H         
--L----------8---------------|----------------10--------|--L------------------|
----------9-----11-----------|------------10------------|---------------------|
------10-------------12---8--|--10---10-----------------|---------------------|
-----------------------------|--------------------------|-----------12--------|
-----------------------------|--------------------------|---------------------|
-----------------------------|--------------------------|---------------------|


   E.   E.  E  H           S S  E  E  E   E.   E.  E   
---------------8--------|--L----------8---------------|
------------9-----------|----------9-----11-----------|
--10---10---------------|------10-------------12---8--|
------------------------|-----------------------------|
------------------------|-----------------------------|
------------------------|-----------------------------|


   E.   E.   E   H           W                    E.   E.   E   H         
----------------10--------|--L----------------|----------------13--------|
------------10------------|-------------------|--14---14---16------------|
--10---10-----------------|-------------------|--------------------------|
--------------------------|-------------------|--------------------------|
--------------------------|-------------------|--------------------------|
--------------------------|-------------------|--------------------------|


  S S  E   E   E   E.   E.   E      E.   E.   E   H           W                 
--L-----------16--15------------|------------15--16--------|--L----------------|
------14--16-----------16-------|--13---13-----------------|-------------------|
----------------------------15--|--------------------------|-------------------|
--------------------------------|--------------------------|-------------------|
--------------------------------|--------------------------|-------------------|
--------------------------------|--------------------------|-------------------|


   E.   E.   E   H           S S  E   E   E   E.   E.   E   
----------------13--------|--L-----------16--15---16---18--|
--14---14---16------------|------14--16--------------------|
--------------------------|--------------------------------|
--------------------------|--------------------------------|
--------------------------|--------------------------------|
--------------------------|--------------------------------|


   E.   E.   E   H           Q     Q     Q     Q     
----------------20--------|-------------------------|
--17---17---20------------|-------------------------|
--------------------------|-------10----12----13----|
--------------------------|-------------------------|
--------------------------|-------------------------|
--------------------------|-------------------------|


   Q.      E   E.   E.   E      Q.      E   E.   E.   E   
------------------------11--|------------------------11--|
--13------11--11---13-------|--13------11--11---13-------|
----------------------------|----------------------------|
----------------------------|----------------------------|
----------------------------|----------------------------|
----------------------------|----------------------------|


   Q.      E   E.   E.   E      H         E   E   E   E   
----------------------------|----------------------------|
------------------------13--|----------------------------|
--13------12--12---13-------|--10---------L--10--12--13--|
----------------------------|----------------------------|
----------------------------|----------------------------|
----------------------------|----------------------------|


   Q.      E   E.   E.   E      Q.      E   E.   E.   E      W                 
------------------------11--|------------------------13--|---L----------------|
--13------11--11---13-------|--13------11--11---13-------|--------------------|
----------------------------|----------------------------|--------------------|
----------------------------|----------------------------|--------------------|
----------------------------|----------------------------|--------------------|
----------------------------|----------------------------|--------------------|


  H        E   E.   E.      Q.      E   E.   E.   E   
--L--------L-------15---|--16------15--15---16---20--|
--------------13--------|----------------------------|
------------------------|----------------------------|
------------------------|----------------------------|
------------------------|----------------------------|
------------------------|----------------------------|


   Q.      E   E.   E.   E      Q.      E   E.   E.   E   
--16------15--15---16---20--|----------------------------|
----------------------------|--18---------------17---18--|
----------------------------|----------19--19------------|
----------------------------|----------------------------|
----------------------------|----------------------------|
----------------------------|----------------------------|


   E.   E.   E   Q     Q        Q.      E   E.   E.   E   
------------15--------15----|--16------15--15---16---20--|
--17---18-------17----------|----------------------------|
----------------------------|----------------------------|
----------------------------|----------------------------|
----------------------------|----------------------------|
----------------------------|----------------------------|


                           PH       PH                                    
   Q.      E   E.   E.     E        W                   W                 
--16------15--15---16---------|----------------------|-------------------|
------------------------------|--<>18----------------|--L----------------|
------------------------<>17--|----------------------|-------------------|
------------------------------|----------------------|-------------------|
------------------------------|----------------------|-------------------|
------------------------------|----------------------|-------------------|


   W                   W                    W                 
--------------------|-------------------|--------------------|
--18----------------|--L----------------|--------------------|
--------------------|-------------------|--------------------|
--------------------|-------------------|--15----------------|
--------------------|-------------------|--------------------|
--------------------|-------------------|--------------------|


  W                    E   E   E   E   E   E   E   E   
-------------------|----------------------------------|
-------------------|----------------------------------|
-------------------|------17------15------------------|
--L----------------|--15------------------18------17--|
-------------------|----------18------16------15------|
-------------------|----------------------------------|


   E   E   E   E   E   E   E   E      E   E   E   E   E   E   E   E   
----------------------------------|----------------------------------|
----------------------------------|----------------------------------|
------17------15------------------|------17------15------------------|
--15------------------18------17--|--15------------------18------17--|
----------18------16------15------|----------18------16------15------|
----------------------------------|----------------------------------|


   E   E   E   E   E   E   E   E      W                 
----------------------------------|--------------------|
----------------------------------|--18----------------|
------17------15------------------|--------------------|
--15------------------18------17--|--------------------|
----------18------16------15------|--------------------|
----------------------------------|--------------------|


   Q     E   Q     E   E   E      W                   H.            E   E   
------------------------------|--------------------|-----------------------|
--18----20--21----20--18------|--18----------------|--L----------------16--|
--------------------------20--|--------------------|---------------17------|
------------------------------|--------------------|-----------------------|
------------------------------|--------------------|-----------------------|
------------------------------|--------------------|-----------------------|


   W                    Q     E   Q     E   E   E      H         H         
--------------------|------------------------------|------------18--------|
--18----------------|--18----20--21----20--18------|--21------------------|
--------------------|--------------------------20--|----------------------|
--------------------|------------------------------|----------------------|
--------------------|------------------------------|----------------------|
--------------------|------------------------------|----------------------|


   H.            Q        H         E.   E.   E      H         E.   E.   E   
--20------------20----|--21--------21---20---18--|--18--------18---16---15--|
----------------------|--------------------------|--------------------------|
----------------------|--------------------------|--------------------------|
----------------------|--------------------------|--------------------------|
----------------------|--------------------------|--------------------------|
----------------------|--------------------------|--------------------------|


   Q.      Q.      E   E      H.            E   E      H.            Q     
--16------15--------------|------------------------|----------------------|
------------------16------|--18----------------16--|----------------------|
----------------------17--|----------------17------|--15------------17----|
--------------------------|------------------------|----------------------|
--------------------------|------------------------|----------------------|
--------------------------|------------------------|----------------------|


   H         E.   E.   E      W                   Q     Q     Q     Q     
--------------------------|--------------------|-------------------------|
--------------------------|--13----------------|-------------------------|
----------------------15--|--------------------|-------10----12----13----|
--18--------17---18-------|--------------------|-------------------------|
--------------------------|--------------------|-------------------------|
--------------------------|--------------------|-------------------------|


   Q.      E   E.   E.   E      Q.      E   E.   E.   E   
------------------------11--|------------------------11--|
--13------11--11---13-------|--13------11--11---13-------|
----------------------------|----------------------------|
----------------------------|----------------------------|
----------------------------|----------------------------|
----------------------------|----------------------------|


   Q.      E   E.   E.   E      H         E   E   E   E   
----------------------------|----------------------------|
------------------------13--|----------------------------|
--13------12--12---13-------|--10---------L--10--12--13--|
----------------------------|----------------------------|
----------------------------|----------------------------|
----------------------------|----------------------------|


   Q.      E   E.   E.   E      Q.      E   E.   E.   E   
------------------------11--|------------------------13--|
--13------11--11---13-------|--13------11--11---13-------|
----------------------------|----------------------------|
----------------------------|----------------------------|
----------------------------|----------------------------|
----------------------------|----------------------------|


   E.   E.   E   E.   E.   E      H        E   E.   E.   
-------16-------15------------|--13--------L-------15---|
--13----------------------13--|---------------13--------|
------------13-------13-------|-------------------------|
------------------------------|-------------------------|
------------------------------|-------------------------|
------------------------------|-------------------------|


   Q.      E   E.   E.   E      Q.      E   E.   E.   E   
--16------15--15---16---20--|--16------15--15---16---20--|
----------------------------|----------------------------|
----------------------------|----------------------------|
----------------------------|----------------------------|
----------------------------|----------------------------|
----------------------------|----------------------------|


   Q.      E   E.   E.   E      E.   E.   E   Q     Q     
----------------------------|------------15--------15----|
--18---------------17---18--|--17---18-------17----------|
----------19--19------------|----------------------------|
----------------------------|----------------------------|
----------------------------|----------------------------|
----------------------------|----------------------------|


                                                        PH  
   Q.      E   E.   E.   E      Q.      E   E.   E.     E   
--16------15--15---16---20--|--16------15--15---16---------|
----------------------------|------------------------------|
----------------------------|------------------------<>17--|
----------------------------|------------------------------|
----------------------------|------------------------------|
----------------------------|------------------------------|


                       Key change: A Major
     PH                        Tempo Change 140 BPM                                                     
     W                   Q     Q     Q     Q        Q.      E   E.   E.   E   
----------------------|-------------------------|------------------------12--|
--<>18----------------|--L----------------------|--14------12--12---14-------|
----------------------|-------11----13----14----|----------------------------|
----------------------|-------------------------|----------------------------|
----------------------|-------------------------|----------------------------|
----------------------|-------------------------|----------------------------|


   Q.      E   E.   E.   E      Q.      E   E.   E.   E   
------------------------12--|----------------------------|
--14------12--12---14-------|------------------------14--|
----------------------------|--14------13--13---14-------|
----------------------------|----------------------------|
----------------------------|----------------------------|
----------------------------|----------------------------|

             Accel------------154 BPM
   H         E   E   E   E      Q.      E   E.   E.   E   
----------------------------|------------------------12--|
----------------------------|--14------12--12---14-------|
--11---------L--11--13--14--|----------------------------|
----------------------------|----------------------------|
----------------------------|----------------------------|
----------------------------|----------------------------|


   Q.      E   E.   E.   E      W                   Q     Q     Q     Q     
------------------------14--|--------------------|-------------------------|
--14------12--12---14-------|--14----------------|--L----------------------|
----------------------------|--------------------|-------11----13----14----|
----------------------------|--------------------|-------------------------|
----------------------------|--------------------|-------------------------|
----------------------------|--------------------|-------------------------|


   Q.      E   E.   E.   E      Q.      E   E.   E.   E   
------------------------12--|------------------------12--|
--14------12--12---14-------|--14------12--12---14-------|
----------------------------|----------------------------|
----------------------------|----------------------------|
----------------------------|----------------------------|
----------------------------|----------------------------|


   Q.      E   E.   E.   E      H         E   E   E   E   
----------------------------|----------------------------|
------------------------14--|----------------------------|
--14------13--13---14-------|--11---------L--11--13--14--|
----------------------------|----------------------------|
----------------------------|----------------------------|
----------------------------|----------------------------|


   Q.      E   E.   E.   E      Q.      E   E.   E.   E   
------------------------12--|------------------------14--|
--14------12--12---14-------|--14------12--12---14-------|
----------------------------|----------------------------|
----------------------------|----------------------------|
----------------------------|----------------------------|
----------------------------|----------------------------|


   E.   E.   E   E.   E.   E      H        E   E.   E.   
-------17-------16------------|--14--------L-------16---|
--14----------------------17--|---------------14--------|
------------14-------14-------|-------------------------|
------------------------------|-------------------------|
------------------------------|-------------------------|
------------------------------|-------------------------|


   Q.      E   E.   E.   E      Q.      E   E.   E.   E   
--17------16--16---17---21--|--17------16--16---17---21--|
----------------------------|----------------------------|
----------------------------|----------------------------|
----------------------------|----------------------------|
----------------------------|----------------------------|
----------------------------|----------------------------|


   Q.      E   E.   E.   E      E.   E.   E   Q     Q     
----------------------------|------------16--------16----|
--19---------------18---19--|--18---19-------18----------|
----------20--20------------|----------------------------|
----------------------------|----------------------------|
----------------------------|----------------------------|
----------------------------|----------------------------|


   Q.      E   E.   E.   E      Q.      E   E.   E.   E   
--17------16--16---17---21--|--17------16--16---17---21--|
----------------------------|----------------------------|
----------------------------|----------------------------|
----------------------------|----------------------------|
----------------------------|----------------------------|
----------------------------|----------------------------|


     PH                           Da Segno                                
     W                   W                  
----------------------|-------------------||
--<>19----------------|--L----------------||
----------------------|-------------------||
----------------------|-------------------||
----------------------|-------------------||
----------------------|-------------------||




Duration Legend
---------------
W - whole
H - half
Q - quarter
E - 8th
S - 16th
T - 32nd
. - note dotted
|-n-|  - n-tuplets


Tablature Legend
----------------
L - tied note
PH - pitch harmonic
Login or Register to remove this ad.