Ads

Stirring an Autumn Moon ~ Mooned Insect (Touhou 8: Imperishable Night) Guitar Tab

Submitted: Jun 08, 2014 by Bessem (Last updated: Jul 20, 2014)

5
Average: 5 (1 vote)
Download | Listen
Game: Touhou 8: Imperishable Night
Composer(s): ZUN
Style: 2 or more instruments, Transcription
Series: Touhou

This song is also called Wriggle Nightbug's Theme

AutoScroll: Slow | Medium | Fast
Piste 1
     Q    Q    Q    E  E     Q    Q    H           Q    Q    Q    E  E   
E||-------9----7----7--9--|-------9----8--------|-------9----7----7--9--|
B||-----------------------|---------------------|-----------------------|
G||-------9----8----8--9--|-------9----8--------|-------9----8----8--9--|
D||-----------------------|---------------------|-----------------------|
A||-----------------------|---------------------|-----------------------|
E||-----------------------|---------------------|-----------------------|


  Q    Q    H           Q    Q    Q    E  E     Q    Q    H         
-------9----8--------|-------9----7----7--9--|-------9----8--------|
---------------------|-----------------------|---------------------|
-------9----8--------|-------9----8----8--9--|-------9----8--------|
---------------------|-----------------------|---------------------|
---------------------|-----------------------|---------------------|
---------------------|-----------------------|---------------------|


  Q    Q    Q    E  E     Q    Q     H           H        H         
-------9----7----7--9--|-------9----11--------|--------------------|
-----------------------|----------------------|--------------------|
-------9----8----8--9--|-------9----11--------|--0--------2--------|
-----------------------|----------------------|-----------0--------|
-----------------------|----------------------|--3-----------------|
-----------------------|----------------------|--------------------|


  H        H           H        H           H.           Q     
--------------------|--------------------|--------------------|
--------------------|--------------------|--0-----------------|
--------------------|--0--------2--------|---------------2----|
--2--------4--------|-----------0--------|--2------------0----|
--0--------2--------|--3-----------------|--------------------|
--------------------|--------------------|--------------------|


  H        H           H        H           H        H         
--------------------|--------------------|--------------------|
--------------------|--------------------|--------------------|
--0--------2--------|--------------------|--0--------2--------|
-----------0--------|--2--------4--------|-----------0--------|
--3-----------------|--0--------2--------|--3-----------------|
--------------------|--------------------|--------------------|


  H.           Q       H        H           H        H         
--------------------|--------------------|--------------------|
--0-----------------|--------------------|--------------------|
---------------2----|--0--------2--------|--------------------|
--2------------0----|-----------0--------|--2--------4--------|
--------------------|--3-----------------|--0--------2--------|
--------------------|--------------------|--------------------|


  H        H           H.           Q       H        H         
--------------------|--------------------|--------------------|
--------------------|--0-----------------|--------------------|
--0--------2--------|---------------2----|--0--------2--------|
-----------0--------|--2------------0----|-----------0--------|
--3-----------------|--------------------|--3-----------------|
--------------------|--------------------|--------------------|


  H        H           H        H           H.           Q     
--------------------|--------------------|--------------------|
--------------------|--------------------|--0-----------------|
--------------------|--0--------2--------|---------------2----|
--2--------4--------|-----------0--------|--2------------0----|
--0--------2--------|--3-----------------|--------------------|
--------------------|--------------------|--------------------|


  H        H           H        H           H        H         
--------------------|--------------------|--------------------|
--------------------|--------------------|--------------------|
--------------------|--------------------|--------------------|
--2--------4--------|--------------------|--2--------4--------|
--0--------2--------|--4--------6--------|--0--------2--------|
--------------------|--2--------4--------|--------------------|


  H.           Q       H        H           H        H         
--------------------|--------------------|--------------------|
--------------------|--------------------|--------------------|
--------------------|--------------------|--------------------|
--6------------4----|--2--------4--------|--------------------|
--4------------2----|--0--------2--------|--4--------6--------|
--------------------|--------------------|--2--------4--------|


  H        H           H.           Q      
--------------------|--------------------||
--------------------|--------------------||
--------------------|--------------------||
--2--------4--------|--6------------4----||
--0--------2--------|--4------------2----||
--------------------|--------------------||




Piste 2
     Q    Q    Q    E  E     Q    Q    H           Q    Q    Q    E  E   
E||-----------------------|---------------------|-----------------------|
B||-------2----0----0--2--|-------2-------------|-------2----0----0--2--|
G||-----------------------|------------5--------|-----------------------|
D||-------2----1----1--2--|-------2-------------|-------2----1----1--2--|
A||-------0----2----2--0--|-------0----6--------|-------0----2----2--0--|
E||-----------------------|------------4--------|-----------------------|


  Q    Q    H           Q    Q    Q    E  E     Q    Q    H         
---------------------|-----------------------|---------------------|
-------2-------------|-------2----0----0--2--|-------2-------------|
------------5--------|-----------------------|------------5--------|
-------2-------------|-------2----1----1--2--|-------2-------------|
-------0----6--------|-------0----2----2--0--|-------0----6--------|
------------4--------|-----------------------|------------4--------|


  Q    Q    Q    E  E     Q    Q    Q    E   E      Q     E   E  H         
-----------------------|------------------------|-------------------------|
-------2----0----0--2--|-------2----4----8--10--|--12----10--12-----------|
-----------------------|------------------------|----------------9--------|
-------2----1----1--2--|-------2----4-----------|-------------------------|
-------0----2----2--0--|-------0----2-----------|-------------------------|
-----------------------|------------------------|-------------------------|


   Q     E   E   H            E   E  E   E   E  E  E  E   
----------------10--------|------------------------------|
--12----10--12------------|--12--10-----12--10-----------|
--------------------------|----------9----------9--7--9--|
--------------------------|------------------------------|
--------------------------|------------------------------|
--------------------------|------------------------------|


  E  E  E  E  H            Q     E   E  H            Q     E   E   H         
-----------------------|-------------------------|----------------10--------|
-----8-----7-----------|--12----10--12-----------|--12----10--12------------|
--------------9--------|----------------9--------|--------------------------|
--9-----7--------------|-------------------------|--------------------------|
-----------------------|-------------------------|--------------------------|
-----------------------|-------------------------|--------------------------|


   E   E  E   E   E  E  E  E     E  E  E  E  Q    Q     
------------------------------|-----3-----2--0---------|
--12--10-----12--10--------5--|--5---------------------|
----------9----------9--7-----|--4-----2---------------|
------------------------------|------------------------|
------------------------------|------------------------|
------------------------------|------------------------|


   Q     E   E  H            Q     E   E   H         
-------------------------|----------------10--------|
--12----10--12-----------|--12----10--12------------|
----------------9--------|--------------------------|
-------------------------|--------------------------|
-------------------------|--------------------------|
-------------------------|--------------------------|


   E   E  E   E   E  E  E  E     E  E  E  E  H         
------------------------------|-----3-----2--0--------|
--12--10-----12--10--------5--|-----------------------|
----------9----------9--7-----|--4-----2--------------|
------------------------------|-----------------------|
------------------------------|-----------------------|
------------------------------|-----------------------|


   Q     E   E  H            Q     E   E   H         
-------------------------|----------------10--------|
--12----10--12-----------|--12----10--12------------|
----------------9--------|--------------------------|
-------------------------|--------------------------|
-------------------------|--------------------------|
-------------------------|--------------------------|


   E   E  E   E   E  E  E  E     E  E  E  E  H           Q    E  E  H         
------------------------------|-----3-----2--0--------|--4----2--4-----------|
--12--10-----12--10--------5--|-----------------------|-------------2--------|
----------9----------9--7-----|--4-----2--------------|----------------------|
------------------------------|-----------------------|----------------------|
------------------------------|-----------------------|----------------------|
------------------------------|-----------------------|----------------------|


  Q    E  E  H           E  E  E  E  E  E  E  E     E  E  E  E  H         
--4----2--4--7--------|--4--2-----4--2-----------|-----0-----------------|
----------------------|--------2--------2--0--2--|-----------4--2--------|
----------------------|--------------------------|--1--------------------|
----------------------|--------------------------|--------4--------------|
----------------------|--------------------------|-----------------------|
----------------------|--------------------------|-----------------------|


  Q    E  E  H           Q    E  E  H           E  E  E  E  E  E  E  E   
--4----2--4-----------|--4----2--4--7--------|--4--2-----4--2-----------|
-------------2--------|----------------------|--------2--------2--0--2--|
----------------------|----------------------|--------------------------|
----------------------|----------------------|--------------------------|
----------------------|----------------------|--------------------------|
----------------------|----------------------|--------------------------|


  E  E  E  E  Q    Q      
-----0--------0---------||
--2--------4------------||
--1---------------------||
--------4---------------||
------------------------||
------------------------||
Login or Register to remove this ad.