Ads

Medley (Touhou 7: Perfect Cherry Blossom) Guitar Tab

Submitted: Feb 24, 2013 by Aeromage

5
Average: 5 (9 votes)
Download | Listen
Game: Touhou 7: Perfect Cherry Blossom
Composer(s): ZUN
Style: Arrangement, Fingerstyle, Natural harmonics, Tapped harmonics, Transcription
Series: Touhou

AutoScroll: Slow | Medium | Fast
SPRING SNOW INCEDENT ~ Touhou 7: Perfect Cherry Blossom Medley
As recorded by forest306
(From the 2011 Album EASTERN FEAST GREED (GOOGLE TRANS...))

Music by ZUN
Arranged by da
Transcribed by aeromage 2\24\13

Gtr I (E A D G B E) - 'Capo 1 Standard'

  Q=108
 4/4
  Gtr I
  Q Q   H Q Q   H Q Q   H H   H. E E   H. Q   Q. Q. Q   E E E E E E E E
|-----|-------|-------|---2-|-3------|------|---------|------------------|
|-----|-0---3-|-0---3-|-0---|--------|------|-------0-|---0-------2------|
|---0-|---2---|---2---|-----|--------|-0--0-|----2----|-----0-------0----|
|-2---|-------|-0-----|---0-|----2-4-|------|-4-------|-------2-------2--|
|-----|-3-----|-------|-----|-4------|-3----|-5-------|------------------|
|-----|-------|-------|-0---|--------|------|---------|-0-------0--------|
                                              W         H       H


  E E E E E E E E   E E E E E E E E   E E E E
|-----------------|-----------------|---------^0----|-(0)------------|
|---3-------2-----|---0-------2-----|---3-----^2----|-(2)------------|
|-----0-------0---|-----0-------0---|-----0---^0----|-(0)--------0---|
|-------2-------2-|-------2-------2-|-------2-^2----|-(2)----2-4-----|
|-----------------|-----------------|---------^2----|-(2)------------|
|-0-------0-------|-0-------0-------|-0-------^0----|-(0)------------|
  H       H         H       H         H        H      +H   E E E E


  Q  E  Q E E E   Q.  Q E E E   Q.     Q E E E   Q Q Q  Q   Q  E  Q E E E
|---------------|-------------|--------------0-|----------|-----------------|
|-0-(0)-0-0---0-|-------------|-0------0-0-3---|-0--------|-0-(0)-0-0---0---|
|-0-(0)-0---2---|-----------0-|----------------|-----0--2-|-0-(0)-0---2-----|
|----2----------|-2---2-2-4---|-0---0----------|---2------|----2------------|
|---------------|-------------|----------------|-5--------|-3---------------|
|-0-------------|-0-----------|----------------|----------|-----------------|
  W               W             Q   H.           W          W


  Q.  Q  E E E   E  E   E  Q  E E E   H  Q  Q    Q.     Q      E  E E
|--------------|------------------0-|-2--------|-0------0------0----0----|
|--------------|-0-(0)-(0)-0--0-4---|----0--3--|--------0-(0)-(0)-3------|
|------------0-|----0---------------|----------|------0------------------|
|-2---2--2-4---|--------2-----------|----------|----2--------------------|
|-3------------|-2------------------|-2--------|-3-----------------------|
|--------------|--------------------|----------|-------------------------|
  W              W                               E  E E E +E  +Q.


  H       Q   Q     Q.     Q      E  E E   H       Q   Q     Q.     Q     E E E
|-----------------|-0------0------3--2---|-----------------|-0------0-----0---0-|
|-0-------0---3---|--------0-(0)-(0)---3-|-0-------0---3---|--------0-(0)-0-3---|
|-----0---0---0---|------0---------------|-----0---0---0---|------0---------0---|
|-0-2---2---2---2-|----2-----------------|---2---2---2---2-|----2---------------|
|-----------------|----------------------|-----------------|-3------------------|
|-----------------|-0--------------------|-0---------------|--------------------|
  E E E E E E E E   E  E E E +E  +Q.	   E E E E E E E E   E  E E E +E  E Q



  H       Q   Q     Q.     Q      E  E E   H           H   Q  Q    H   Q  Q
|-----------------|-0------0------3--2---|-0---------|-----------|-------------|
|-0-------0---3---|--------0-(0)-(0)---3-|-0---------|-0------3--|-0------3----|
|-----0---0---0---|------0---------------|-0------0--|-----2-----|-----2-------|
|-0-2---2---2---2-|----2-----------------|-2---2-----|-----------|-0-----------|
|-----------------|----------------------|-x---------|-3---------|-------------|
|-----------------|-0--------------------|-0---------|-----------|-------------|
  E E E E E E E E   E  E E E +E  +Q.       H   Q  Q


  H  H   H.  E E   H.  Q   Q.  Q.  Q
|----2-|-3-------|-------|-----------|-0--------|------||
|-0----|---------|-------|---------0-|-0--------|------||
|------|---------|-0---0-|-----2-----|-0--------|------||
|----0-|-----2-4-|-------|-4---------|-2--------|------||
|------|-4-------|-3-----|-5---------|-2--------|------||
|-0----|---------|-------|-----------|-0--------|-0----||
                           W           W          W


                     T       T      T  		        	   T       T      T
  E E E E E E E E    Q.      E     +H  		E E E E E E E E    Q.      E     +H
|-----------0-----|--2(14)---0(12)-(0(12))----|-----------0-----|--2(14)---3(15)-(3(15))----|
|-0-------0---0---|---------------------------|-0-------0---0---|---------------------------|
|---0---0-------0-|---------------------------|---0---0-------0-|---------------------------|
|-----2-----------|---------------------------|-----2-----------|---------------------------|
|-----------------|---------------------------|-3---------------|-(3)-----------------------|
|-0---------------|-(0)-----------------------|-----------------|---------------------------|
  W                 +W				W                 +W




  E E E E E E E E    Q.   E +H       E E E E E E E E    Q.   E  +Q   Q
|-----------0-----|--2----0-(0)----|-----------0-----|--2----3--(3)--2-|
|-0-------0---0---|----------------|-0-------0---0---|-----------------|
|---0---0-------0-|----------------|---0---0-------0-|-----------------|
|-----2-----------|----------------|-----2-----------|-----------------|
|-----------------|----------------|-3---------------|-(3)-------------|
|-0---------------|-(0)------------|-----------------|-----------------|
  W                 +W               W                 +W


  E  E   E  E  E   E   E   E    E E E E S S S S S S E  E E E E E E E E    Q.   E +Q   Q
|-2-(2)-(2)-0-(0)-(0)-(0)-(0)-|-0-0---------0h2h3p2-0-|-----------0-----|--2----3-(3)--2---|
|-0------------0--------------|-----0-0---0-----------|-0-------0---0---|------------------|
|----0-------------0-------0--|---------0-------------|---0---0-------0-|------------------|
|--------2-------------2------|-----------------------|-----2-----------|------------------|
|-----------------------------|-----------------------|-3---------------|-(3)--------------|
|-0---------------------------|-0---------------------|-----------------|------------------|
  W                             W			W                 +W



  Q.     Q.   Q    Q.     Q.   Q    E. E. E  E. E. E   Q  Q  Q  Q
|-2------0----3--|-2------0----3--|-2--0--3--2--0--3-|-0--2--3--x---|
|----------------|----------------|------------------|----------x---|
|-----0----------|-----0----------|------------------|----------x---|
|----------------|-0--------------|----------0-------|----0-----x---|
|-3--------------|----------------|-3----------------|-3--------x---|
|----------------|----------------|------------------|-------0--x---|
  Q   H.           Q   H.           H        H         Q  Q  Q  Q


                      H       E E E E   Q.     E Q.     E   Q   Q   Q   Q
|-------------------|-----------0-2-5-|-3------2-3------2-|-3---7---3---2------|
|-------------------|---------0-------|-------------------|-----0---0---0------|
|-------------------|-----------------|------0--------0---|-------0---0---0----|
|---2---2---2---2-2-|---2---2---------|----2--------2-----|---2----------------|
|-------------------|-----------------|-------------------|--------------------|
|-0---0---0---0-----|-0---0---0-------|-0--------0--------|-0------------------|
  E E E E E E S E S   E E E E H         E  E Q   E  E Q     E E E E E E E E


					                       T      T      T
  Q.     E E E E E   +H        E E E E  Q.     E Q.     E   Q  Q      Q      Q
|-0------3-2-------|-------------0-2-5-|-3------2-3------2-|-3---------0(12)--2(14)--|
|------0-----3---0-|-(0)-------0-------|-------------------|----0(12)----------------|
|----0---------2---|-------0---0-------|------0--------0---|-------------------------|
|----------0-------|-----2---2---------|----2--------2-----|-------------------------|
|-3----------------|-------------------|-------------------|-------------------------|
|------------------|--0----------------|-0--------0--------|-0-----------------------|
  E  E Q   H          E  E E E H	 E  E Q   E  E Q     W


 
				                                  |-3-|
  Q.     E E E E E   +Q     Q   Q Q   Q    E  E Q    E  E   E E E S S S E  E   E   E
|-0------3-2---0-0-|-(0)------------|-0----0----0----0----|-0-2-3-2h3p2-0-(0)-(0)-(0)-|
|------0-----3-----|--------0---0-3-|---------3---------3-|-0---0-------0--3---0---3--|
|----0-------------|----------------|---0-(0)-----0-(0)---|---------------------------|
|----------0---x---|-----2-(2)------|-----------0---------|---------------------------|
|-3----------------|----------------|-3-------------------|---------------------------|
|------------------|--0-------------|---------------------|-0-------------------------|
  E  E Q   Q          E  E +H. 	      E E +Q    E E +Q      W


 

  Q    E  E E E E E   E E E E Q  Q    Q    E  E H         Q    E  E E E E E
|-0----0--7-3-2-0---|-3-2-0---------|-0----0--7-2-------|-0----0--7-3-2-0---|
|-----------------3-|-------3-0--3--|---------------0---|-----------0-----3-|
|---0-(0)-0---------|---0---0-0--0--|---0-(0)-----0---0-|---0-(0)-0-0-------|
|-----------0-------|---------------|-----------0-------|-------------------|
|-3-----------------|---------------|-3-----------------|-------------------|
|-------------------|-0-------------|-------------------|-0-----------------|
  E E +Q    H         W               E E +Q    E E E E   E E +Q    H


                                                         Q=120
  Q.   E E E E E   Q a Q  Q  Q    W               +H.      E E
|-0------0-------|-0-2s3--2-----|-0-------------|-(0)----------||
|------3---3-0-3-|-----------3--|-0-------------|-(0)----------||
|----------------|--------------|---------------|--------------||
|--------0-------|--------0-----|---------------|----------2-4-||
|-3--------------|-3------------|---------------|--------------||
|----------------|--------------|-0-------(0)-0-|--0-----------||
  H      H         H      H       H.      +E  E    W


  H.           E E   H       H         W
|------------------|-----------------|-----------------|-----------------|
|------------------|---------3-------|-0---------0-----|-0-----0---3-----|
|-0--------------0-|-2-----------2---|-----0-(0)---0---|-0-0-------------|
|--------------4---|-0-0-0-0-0-4---4-|---2-----------2-|-----2---2---2---|
|------------------|-----------------|-3---------------|-----------------|
|-0--0-0-0-0-0-0---|-----------------|-----------------|-----------------|
  E  E E E E E Q     E E E E E E E E   Q E E +E  E E E   Q Q Q E E E E
                                                         |-3-|


                                                          |-3-|
  H        Q     Q    Q.     Q.   Q    Q.   Q.   Q    H   Q Q Q
|-0--------0-----3--|-2--------------|--------------|-------------|
|-------------------|--------3-------|-----------0--|-------------|
|-----0-------------|------0------2--|-0----2-------|-------------|
|---2---2-(2)-2-----|-0--2-----------|--------------|-1---1-2-4---|
|-3-----------------|----------------|-3------------|-2-----------|
|-------------------|----------------|--------------|-------------|
  E E E E +E  Q.      E  E q H         W              W


                                                                   |-3-|
  H.           E E   H       H         W                  +E  E Q  Q Q Q
|------------------|-----------------|-0----------------|-(0)-3-2--0------|
|------------------|---------3-------|------------0-----|------------0-3--|
|-0--------------0-|-2-----------2---|------0-(0)-----0-|-----------------|
|--------------4---|-0-0-0-0-0-4---4-|----2---------2---|-----------------|
|------------------|-----------------|-3----------------|--3--------------|
|-0--0-0-0-0-0-0---|-----------------|------------------|-----------------|
  E  E E E E E Q     E E E E E E E E   Q  E E +E  E E E    W


                                                   
  +Q.     Q.      Q    Q.   Q.   Q    Q.   E +H
|--------------------|------0-------|-0----0-(0)----|------||
|-(3)-----1----------|-----------7--|-7----0-(0)----|------||
|-------0----(0)--2S=|=8------------|-8-------------|------||
|-----2--------------|--------------|---------------|------||
|--3-----------------|--------------|---------------|------||
|--------------------|-7------------|-0-------------|-0----||
   E  E Q    +H        W              W               W


  Q=102
  E E E E E E E E    E  E E E E E E E   E E E E E E E E    W
|-----0-----0-----|--0------0-3-2-0---|-----0-----0-----|--0-----|
|-0-3---0-3---0-3-|-----0-3---------3-|-0-3---0-3---0-3-|--------|
|-----------------|-------------------|-----------------|--------|
|-----------------|-------------------|-----------------|--------|
|-3---------------|-(3)---------------|-----------------|--------|
|-----------------|-------------------|-0---------------|-(0)----|
  W                 +W                  W                 +W


  E E E E E E E E    E  E E E E E E E   E E E E E E E E    W
|-2-3-0-2-3-0-2-3-|--0--2-3-0-7-5-3-2-|-2-3-0-2-3-0-2-3-|--0-----|
|-----------------|-------------------|-----------------|--------|
|-----------------|-------------------|-----------------|--------|
|-----------------|-------------------|-----------------|--------|
|-3---------------|-(3)---------------|-----------------|--------|
|-----------------|-------------------|-0---------------|-(0)----|
  W                 +W                  W                 +W


  E E E E E E E E    E  E E E E E E E   E E E E E E E E    W
|-----0-----0-----|--0------0-3-2-0---|-----0-----0-----|--0-----|
|-0-3---0-3---0-3-|-----0-3---------3-|-0-3---0-3---0-3-|--------|
|-----------------|-------------------|-----------------|--------|
|-----------------|-------------------|-----------------|--------|
|-3---------------|-(3)---------------|-----------------|--------|
|-----------------|-------------------|-0---------------|-(0)----|
  W                 +W                  W                 +W


                                        H.=H
  E E E E E E E E    E  E E E E E E E   E E E E E E E E    H     Q  Q
|-2-3-0-2-3-0-2-3-|--0--2-3-0-7-5-3-2-|-2-3-0-2-3-0-2-3-|--0--------2--|
|-----------------|-------------------|-----------------|--------0-----|
|-----------------|-------------------|-----------------|--------------|
|-----------------|-------------------|-----------------|--------------|
|-3---------------|-(3)---------------|-----------------|--------------|
|-----------------|-------------------|-0---------------|-(0)----------|
  W                 +W                  W                 +W


  Q=102
  H       +E  E E E   +H        +E  E E E   +H.             +E  E   +Q     Q     Q     E  E
|-3-------(3)---0-2-|-(2)-------(2)-----0-|-(0)-------------(0)-7-|-(7)----5-----3-----2--3-|
|-------0-(0)-0-----|---------0-(0)-0-3---|---------0-(0)-------0-|-(0)----0-----0--0-(0)---|
|-----0-------------|-------0-------------|-------0-------0-------|-----0-(0)-0-(0)---------|
|---2---------------|--0--2---------------|-----2------------2----|-------------------------|
|-------------------|---------------------|--3--------------------|-------------------------|
|-0-----------------|---------------------|-----------------------|-------------------------|
  E E E E +H           E  E E E +H           E  E E E +E  E  E  E   +E  E +E  E +E  E +Q




  H       +E  E E E    Q.     E +E  E E E   H      +E  Q.       +Q.     E +E  E E E
|-3-------(3)---0-2-|-(2)-----2-(2)-3-2---|-------------------|-------------------0-|
|-------0-(0)-0-----|-------0---(0)-----3-|-0------(0)-0------|-(0)-----0-(0)-0-3---|
|-----0-------------|---------------------|------0-(0)------0-|-------0-------------|
|---2---------------|--0--2---------------|----2----------2---|-----2---------------|
|-------------------|---------------------|-3-----------------|--3---------3--------|
|-0-----------------|---------------------|-------------------|---------------------|
  E E E E +H           E  E Q   +H	    Q  E E +Q     E E    E  E Q    H




  H    +E  E E E   H    +E  E E E   H    +E  E E E   H    +E  E E E
|----------------|----------------|--------------0-|------------0-2-|
|------------0-3-|--------------0-|-1----(1)-1-3---|-4----(4)-4-----|
|-2----(2)-2-----|-0----(0)-0-2---|----------------|----------------|
|-0--------------|----------------|----------------|----------------|
|----------------|----------------|-3--------------|-2--------------|
|----------------|-0--------------|----------------|----------------|
  W                W                W                W


  Q.     E H    +E  E E E E E E E   W
|-2------0----|-----2p0-3-2p0-----|----------||-7----|
|----------0--|-(0)-----------3---|-0--------||------|
|------0---0--|-----------------2-|----------||------|
|----2--------|--0----------------|-2--------||------|
|-3-----------|-------------------|----------||------|
|-------------|-------------------|----------||-0----|
  E  E Q   H     W                  W           W


   W               W               Q.   Q.   E  E   W
|--7----5----5-7-|-0------------|--7----5----5-10-|-7---------------|
|----------------|--------------|-----------------|-----------------|
|----------------|---------0----|-----------------|------------0----|
|----------------|------2----2--|-(2)-------------|-----------------|
|----------------|-3------------|-----------------|------7-(7)---7--|
|-(0)------------|--------------|-----------------|-0--0------------|
   Q.   Q.   E E   Q.   Q  E Q    +W                Q  E E +E  E Q


   W               W                            W
|--7----5----5-7-|-0------------|-^0--------|------------------|
|----------------|--------------|-^0--------|-3S5--------------|
|----------------|---------0----|-^x--------|--------------0---|
|----------------|------2----2--|-^x--------|--------2-(2)---2-|
|----------------|-3------------|-^3--------|------------------|
|-(0)------------|--------------|-----------|---0--------------|
   Q.   Q.   E E   Q.   Q  E Q     W          a Q.   E +E  E Q


   Q   Q  Q  E E   +W                  a  Q  Q  Q  E E   +W
|------3--2------|------------------|--------3--2----0-|-(0)-------------|
|--5---------3-0-|-(0)--------------|--3S=5--------3---|-----------------|
|----------------|-------------0----|------------------|-------------0---|
|-(2)------------|-------2-(2)---2--|-(2)--------------|-------2-(2)---2-|
|----------------|--3---------------|------------------|-----------------|
|----------------|------------------|------------------|--0--------------|
  +W                Q.   E +E  E Q    +W                  Q.   E +E  E Q


  a  Q   Q  Q  E E   +W                 a  Q   Q  Q  Q    W
|--------3--2------|------------------|--------3--2-----|-0---------|
|-3S=5---------3-0-|-(0)--------------|-3S=5---------3--|-----------|
|------------------|-------------0----|-----------------|-----------|
|---(2)------------|-------2-(2)---2--|---(2)-----------|--------2--|
|------------------|--3---------------|-----------------|-----------|
|------------------|------------------|-----------------|-0----0----|
    +W                Q.   E +E  E Q      +W              Q.   E H


    W             +H      Q  Q    H      +E  E E E   H      +E  E E E
|-<12>--------|-(<12>)-------3--|-2------(2)---0-3-|-2------(2)-0-2-3-|
|-<12>--------|-(<12>)----0-----|------------0-----|------------------|
|-<12>--------|-(<12>)----------|------0-(0)-------|------0-(0)-------|
|-------------|-----------------|----2-------------|-0--2-------------|
|-------------|-----------------|------------------|------------------|
|-------------|-----------------|-0----------------|------------------|
                                  Q  E E +H          Q  E E +H


  H      +E  E E E   +E  E E E E E +E  E   +H       +E  E E E   Q.   Q  E E E
|-5------(5)-0-2-3-|-(3)-0---3-2---------|--------------------|---------------|
|------------------|-------0-----3-(3)-0-|-(0)------(0)-0-3---|------0--------|
|------0-(0)-------|---------------------|--------0-(0)-----0-|-2-----------0-|
|----2-------------|-----------0---------|------2-------------|-0-------2-4---|
|-3----------------|--3------------------|--------------------|---------------|
|------------------|---------------------|--0-----------------|---------------|
  Q  E E +H           H        H            Q   E E +H          W


  H      +E  E E E   Q  Q  Q  E E   H      +E  E E E   H      +E  E E E
|--------------2-3-|-5--3--2----3-|-2------(2)---0-3-|-2------(2)-0-2-3-|
|-0------(0)-0-----|----------0---|------------0-----|------------------|
|------0-(0)-------|--------------|------0-(0)-------|------0-(0)-------|
|----2-------------|-0------------|----2-------------|-0--2-------------|
|-3----------------|--------------|------------------|------------------|
|------------------|--------------|-0----------------|------------------|
  Q  E E +H          W              Q  E E +H          Q  E E +H


  H      +E  E E E   +E  E E E E E +E  E   +H       +E  E E E   Q.   Q  E E E
|-5------(5)-0-2-3-|-(3)-0---3-2---------|--------------------|---------------|
|------------------|-------0-----3-(3)-0-|-(0)------(0)-0-3---|------0--------|
|------0-(0)-------|---------------------|--------0-(0)-----0-|-2-----------0-|
|----2-------------|-----------0---------|------2-------------|-0-------2-4---|
|-3----------------|--3------------------|--------------------|---------------|
|------------------|---------------------|--0-----------------|---------------|
  Q  E E +H           H        H            Q   E E +H          W


  H      +E  E E E   Q    Q     Q     Q     H       H         E E E E Q    E  E
|--------------2-3-|-5----3-----2---------|-0-------0-------|-0-2-3-5-7----5--7-|
|-0------(0)-0-----|------0-----------3---|-----------------|---0---0-0---------|
|------0-(0)-------|---0-(0)-0-(0)-0-(0)--|-----0-------0---|-----------0-(0)---|
|----2-------------|-0--------------------|---2---2-0-2---2-|-------------------|
|-3----------------|----------------------|-3---------------|-------------------|
|------------------|----------------------|-----------------|-0-----------------|
  Q  E E +H          E E +E  E +E  E +Q     E E E E E E E E   E Q   E E E +Q



   T
   Q.         E E  E E E   E E E E Q    Q     H       H         E E E E Q    E  E
|-10(22)-----12-7-10-5-7-|-3-5-2-3-0--<12>--|-0-------0-------|-0-2-3-5-7----5--7-|
|------------------------|------------<12>--|-----------------|---0-0-0-0---------|
|----------0-------------|------------------|-----0-------0---|-----------0-(0)---|
|---------------0----x---|-----0------------|---2---2-0-2---2-|-------------------|
|--------7---------------|-3----------------|-3---------------|-------------------|
|--8---------------------|---------0----x---|-----------------|-0-----------------|
   E     E Q    Q    Q     Q   Q   Q    Q     E E E E E E E E   E E E E E E +Q




   Q.      E  E  E  E E   E  E E E Q  Q    Q  Q  Q  E E   +Q   Q  Q  E E
|-10------12----15-14-5-|-7--------7--x--|-0--2--3----0-|-(0)--2--3----3-|
|------------12---------|--------7----x--|-0--0--0----0-|-(0)--0--0----0-|
|-------0---------------|------8------x--|--------------|----------------|
|-------------0---------|----9--------x--|----0---------|------0---------|
|-----7-----------------|-------------x--|-3----------3-|-(3)----------3-|
|--8--------------------|-7-----------x--|-------0--x---|---------0--x---|
   E  E Q     H           H.          Q    Q  Q  Q  E E   +Q   Q  Q  E E


  +E  E E E E E E E   E E E E Q  E E   +Q   Q  Q  E E   +Q   Q  Q  E
|-(3)-2-0---3-2-0---|---------0----0-|-(0)--2--3----0-|-(0)--2--3----3-|
|-(0)-----3-------3-|-0-3-0-3------0-|-(0)--0--0----0-|-(0)--0--0----0-|
|-------------------|----------------|----------------|----------------|
|-----------0-------|-----0----------|------0---------|------0---------|
|-(3)---------------|-3------------3-|-(3)----------3-|-(3)----------3-|
|-------------------|---------0--x---|---------0--x---|---------0--x---|
  +H        H         Q   Q   Q  E E   +Q   Q  Q  E E   +Q   Q  Q  E E


  +E  E E E E E E E   H.          E E   +Q   Q  Q  E E   +Q   Q  Q  E E
|-(3)-2-0---3-2-0---|-0--------0----3-|-(3)--5--7----3-|-(3)--5--7----3-|
|-(0)-----3-------3-|--------0------0-|-(0)--0--0----0-|-(0)--0--0----0-|
|-------------------|------0----------|----------------|----------------|
|-----------0-------|----2------------|------0---------|------0---------|
|-(3)---------------|---------------3-|-(3)----------3-|-(3)----------3-|
|-------------------|-0-----------x---|---------0--x---|---------0--x---|
  +H        H         E  E E E Q  E E   +Q   Q  Q  E E   +Q   Q  Q  E E


  +E  E E E E E E E   E E E E Q  E E   +Q   Q  Q  E E   +Q   Q  Q  E E
|-(3)-2-0---3-2-0---|---------0----3-|-(3)--5--7----3-|-(3)--5--7----3-|
|-(0)-----3-------3-|-0-3-0-3------0-|-(0)--0--0----0-|-(0)--0--0----0-|
|-------------------|----------------|----------------|----------------|
|-----------0-------|-----0----------|------0---------|------0---------|
|-(3)---------------|-3------------3-|-(3)----------3-|-(3)----------3-|
|-------------------|---------0--x---|---------0--x---|---------0--x---|
  +H        H         Q   Q   Q  E E   +Q   Q  Q  E E   +Q   Q  Q  E E


  H.=H                                Q=84
  +E  E E E E E E E   H       H       Q.     Q.      Q     Q.     Q.      Q
|-(3)-2-0---3-2-0---|-0-------0----||--------0-------2---|--------0-------2---|
|-(0)-----3-------3-|-------0------||-0------------------|-0-----------0-(0)--|
|-------------------|-----0--------||------0------0-(0)--|------0----0--------|
|-----------0-------|---2----------||----2------2--------|-0--2---------------|
|-(3)---------------|--------------||--------------------|--------------------|
|-------------------|-0------------||-0------------------|--------------------|
  +H        H         E E E E H       E  E Q    E E +Q     E  E Q    E E +Q


  Q   Q   Q    Q     W              Q.     Q.      Q     Q    E  Q.      Q
|-3---0---2--------|-0-------0----|----------------0---|-----------------0---|
|--------------3---|-------0------|-0------3-----------|---------3-----------|
|---0---0---0-(0)--|-----0--------|------0------0-(0)--|-2----2-------2-(2)--|
|---------0--------|---2----------|----2------2--------|-0-2-(2)----2--------|
|-3----------------|--------------|-3------------------|---------------------|
|------------------|-0------------|--------------------|---------------------|
  E Q   E E E +Q     E E E E H      E  E Q    E E +Q     E E  Q     E E +Q


  Q  Q  Q  Q    H.      E E   Q.     Q.      Q     Q.     Q.      Q
|-------------|-------------|--------0-------2---|--------0-------2---|
|-0-----------|---------0---|-0------------------|-0-----------0-(0)--|
|----0--2-----|-0-------0-2-|------0------0-(0)--|------0----0--------|
|-------0--4--|-------------|----2------2--------|-0--2---------------|
|-3-----------|-------------|--------------------|--------------------|
|-------------|-0-----------|-0------------------|--------------------|
  H     H       H.      Q     E  E Q    E E +Q     E  E Q    E E +Q


  Q   Q   Q    Q     W              Q.     Q.     Q     Q.     Q.     Q
|-3---5---7---10---|-7-------7----|-7------0------7---|-7------0------7---|
|------------------|-------0------|------0------0-----|------0------0-----|
|---0---0---0----0-|-----0--------|----0------0-----0-|----0------0-----0-|
|---------0--------|--------------|-------------------|-0-----------------|
|-3----------------|---7----------|-------------------|-------------------|
|------------------|-0------------|-8-----------------|-------------------|
  E Q   E E Q    E   E E E E H      E  E Q    E Q   E   E  E Q    E Q   E


  H.=H
  Q   Q   Q    Q       W
|-0---2---3---10---|-<12>--------*|----|
|-----0--------0---|-<12>--------*|----|
|---0---0---0----0-|-------------*|----|
|---------0--------|-------------*|----|
|-3----------------|-------------*|----|
|------------------|---0---------*|----|
  E E E E E E  E E     W


Duration Legend
---------------
W - whole; H - half; Q - quarter; E - 8th; S - 16th; T - 32nd; X - 64th; a - acciaccatura
+ - note tied to previous; . - note dotted; .. - note double dotted
Uncapitalized letters represent notes that are staccato (1/2 duration)
Irregular groupings are notated above the duration line
Duration letters will always appear directly above the note/fret number it represents the
duration for.  Duration letters with no fret number below them represent rests.  Multi-
bar rests are notated in the form Wxn, where n is the number of bars to rest for.  Low
melody durations appear below the staff

Tablature Legend
----------------
 h   - hammer-on
 p   - pull-off
 b   - bend
 pb  - pre-bend
 r   - bend release (if no number after the r, then release immediately)
 /\  - slide into or out of (from/to "nowhere")
 s   - legato slide
 S   - shift slide
  - natural harmonic
[n]  - artificial harmonic
n(n) - tapped harmonic
 ~   - vibrato
 tr  - trill
 T   - tap
 TP  - trem. picking
 PM  - palm muting
\n/  - tremolo bar dip; n = amount to dip
 \n  - tremolo bar down
 n/  - tremolo bar up
/n\  - tremolo bar inverted dip
 =   - hold bend; also acts as connecting device for hammers/pulls
 <>  - volume swell (louder/softer)
 x   - on rhythm slash represents muted slash
 o   - on rhythm slash represents single note slash

Misc Legend
-----------
 |  - bar
||  - double bar
||o - repeat start
o|| - repeat end
*|  - double bar (ending)
 :  - bar (freetime)
 $  - Segno
 &  - Coda
Tempo markers -  = BPM(8/16=s8/s16), where s8 = swing 8ths, s16 = swing 16ths
Login or Register to remove this ad.

2 comments on Medley

This is gold!

5

This is gold!

This is the best thing ever,

This is the best thing ever, period. If I could add a tab to my favorites more than once, I would fill an entire page with just this tab.