Login or Register to remove this ad.

Ghostly Band ~ Phantom Ensemble (Touhou 7: Perfect Cherry Blossom) Guitar Tab

Submitted: Oct 13, 2014 by Bessem

5
Average: 5 (2 votes)
Download | Listen
Game: Touhou 7: Perfect Cherry Blossom
Composer(s): ZUN
Style: Arrangement, Fingerstyle
Series: Touhou

AutoScroll: Slow | Medium | Fast
the trompet solo is missing but no one cares about it :P
it's the same tab i posted a year ago but in one guitar 
the piano bridge is better in this one

Piste 1
     E  E     Q    Q    Q    E  E     Q    Q    Q    E  E   
E||--------|-----------------------|-----------------------|
B||--------|-------5----4----------|-------7----5----4-----|
G||--------|-----------------6--4--|--L-----------------3--|
D||--2--4--|--6--------------------|-----------------------|
A||--------|--4--------------L--2--|--L--------------L--1--|
E||--------|-----------------------|-----------------------|


  Q    Q    Q    E  E     E  E  E  E  Q    E  E     Q    Q    Q    E  E   
-------4---------------|-------------------------|-----------------------|
------------7----5--4--|--L--5--4----------------|-------5----4----------|
--L--------------------|-----------6--4----4-----|-----------------6--4--|
-----------------------|----------------------6--|--L--------------------|
--L--------------L--0--|--L-----------2----------|--4--------------L-----|
-----------------------|-------------------------|--------------------0--|


  Q    Q    Q    E  E     Q    Q    Q    E  E     E  E  E  E  Q    E  E   
-------2---------------|-------4----2----7--9--|--L----------------------|
------------5----4-----|-----------------------|-----2--4--5--4----2-----|
--L-----------------3--|--L--------------------|----------------------4--|
-----------------------|-----------------------|-------------------------|
-----------------------|-----------------0-----|--2----------------------|
--L--------------L--2--|--L--------------------|-------------------------|


  Q    Q    Q    E  E     Q    Q    Q    E  E     Q    Q    Q    E  E   
-----------------------|-----------------------|-------4---------------|
-------5----4----------|-------7----5----4-----|------------7----5--4--|
--6--------------6--4--|--L-----------------3--|--L--------------------|
-----------------------|-----------------------|-----------------------|
--4--------------L--2--|--L--------------L--1--|--L--------------L--0--|
-----------------------|-----------------------|-----------------------|


  E  E  E  E  Q    E  E     Q    Q    Q    E  E     Q    Q    Q    E  E   
-------------------------|-----------------------|-------2---------------|
--L--5--4----------------|-------5----4----------|------------5----4-----|
-----------6--4----4-----|-----------------6--4--|--L-----------------3--|
----------------------6--|--L--------------------|-----------------------|
--L-----------2----------|--4--------------L-----|-----------------------|
-------------------------|--------------------0--|--L--------------L--2--|


  Q    Q    Q    E  E     Q    Q    Q    E  E     Q    Q    E  E  E  E   
-------4----2----7--9--|--L--------------7--9--|--L---------------3--2--|
-----------------------|-----------------------|---------------0--------|
--L--------------------|-----------------------|------------------------|
-----------------------|-----------------------|------------------------|
-----------------0-----|-----------------------|------------------------|
--L--------------------|------------7----------|------------------------|


  E  E  E  E  E  E  E  E     E  E  E  E  H           E  E  E  E  Q    E  E   
--3--------3--3--------3--|--3--2--0--------------|--------7----------------|
--------1-----------3-----|-----------3--0--------|-----7-------------3--5--|
-----0-----0-----2-----2--|-----------------------|--9--------9-------------|
--------------0-----------|--2--------------------|--------------0----------|
--3-----------------------|-----------------------|-------------------------|
--------------------------|--------------0--------|--8----------------------|


  E  E  E  E  E  E  E  E     E  E  E  E  E  E  E  E     E  E  E  E  H         
-----3-----2--0-----3--2--|--3--------3--3--------3--|--3--2--0-----0--------|
--0-----0--------0--------|--------1-----------3-----|-----------3-----------|
--------------------------|-----0-----------2--------|-----------------------|
--2-----------------------|--------------0-----------|--------------2--------|
--------------------------|--3-----------------------|-----------------------|
--------------0-----------|--------------------------|--0--------------------|


  E  E  E  E  E  E  E  E      H        E  E  E  E     E  E  E  E  E  E  E  E   
--------7--------7-----7--|--12--------------4--3--|--4--------4--4--------4--|
-----7--------7-----------|---------------1--------|--------------------4-----|
--9--------9--------9-----|------------------------|--------1--------3-----3--|
--------------0-----------|------------------------|-----3-----3--1-----------|
--------------------------|------------------------|--4-----------------------|
--8-----------------------|---0--------------------|--------------------------|


  E  E  E  E  Q    Q       E  E  E  E  Q    E  E     E  E  E  E  E  E  E  E   
--4--3--1---------------|--------8----------------|-----4-----3--1-----4--3--|
-----------4--1---------|--6--8-----6-------4--6--|--1-----1--------1--------|
------------------------|-------------------------|--------------------------|
-------------------3----|-------------------------|--------------3-----------|
------------------------|--4-----------6----------|--------------------------|
--1---------------------|-------------------------|--1-----------------------|


  E  E  E  E  E  E  E  E     E  E  E  E  Q    Q       E  E  E  E  E  E  E  E   
--4--------4--4--------4--|--4--3--1-----1---------|--------8--------8-----8--|
--------------------4-----|-----------4------------|--6--8-----6--8-----6-----|
--------1--------3-----3--|------------------------|--------------------------|
-----3-----3--1-----------|-------------------3----|--------------------------|
--4-----------------------|------------------------|--4-----------6-----------|
--------------------------|--1---------------------|--------------------------|


   H        H           E  E  E  E  E  E  E  E     E  E  E  E  E  E  E  E   
--13-----------------|-----------0--------------|--------------------------|
---------------------|--------4-----4-----------|-----------4--------------|
---------------------|-----1-----------1--------|--------4-----4-----------|
---------------------|--------------------2-----|-----4-----------4--1-----|
---8-----------------|--4--------------------2--|--L--------------------1--|
---------------------|--------------------------|--------------------------|


  E  E  E  E  E  E  E  E     E  E  E  E  E  E  E  E   
--------------2--0--------|--------------------------|
-----------4--------4-----|-----------2--------------|
--------3-----------------|--------2-----------4-----|
-----4--------------------|-----2-----------4--------|
--L--------------------0--|--L-----------2-----------|
--------------------------|-----------------------0--|


  E  E  E  E  E  E  E  E     E  E  E  E  E  E  E  E   
--------------------------|--------------------------|
--------------------------|-----------------4--------|
--------------------------|--------------4-----4-----|
-----------4--6-----4-----|--------1--4--------------|
--4--6--7--------7-----7--|-----2--------------------|
-----------------------0--|--L--------------------2--|


  E  E  E  E  E  E  E  E     E  E  E  E  E  E  E  E   
--------------------------|--------------------------|
-----------------4--------|--------------------------|
--------------3-----3-----|-----------2-----------4--|
-----------4--------------|--------2-----------4-----|
-----1--4-----------------|-----4-----------6--------|
--L--------------------5--|--L-----------7-----------|


  E  E  E  E  E  E  E  E     E  E  E  E  E  E  E  E   
-----------0--------------|--------------------------|
--------4-----4-----------|-----------4--------------|
-----1-----------1--------|--------4-----4-----------|
--------------------2-----|-----4-----------4--1-----|
--4--------------------2--|--L--------------------1--|
--------------------------|--------------------------|


  E  E  E  E  E  E  E  E     E  E  E  E  E  E  E  E   
--------------2--0--------|--------------------------|
-----------4--------4-----|-----------2--------------|
--------3-----------------|--------2-----------4-----|
-----4--------------------|-----2-----------4-----2--|
--L--------------------0--|--L-----------2-----------|
--------------------------|--------------------------|


  E  E  E  E  E  E  E  E     E  E  E  E  E  E  E  E   
--------------------------|--------------------------|
--------------------------|-----------------4--------|
--------------------------|--------------4-----4-----|
-----------4--6-----4-----|--------1--4--------------|
--4--6--7--------7-----7--|-----2--------------------|
-----------------------0--|--L--------------------2--|


  E  E  E  E  E  E  E  E     E  E  E  E  E  E  E  E          
--------------------------|--------------------------|-----||
-----------------4--------|--------------------------|-----||
--------------3-----3-----|-----------2-----------4--|-----||
-----------4--------------|--------2-----------4-----|-----||
-----1--4-----------------|--L--4-----------6--------|-----||
--L--------------------5--|--L-----------7-----------|-----||
Login or Register to remove this ad.