Bloom Nobly, Cherry Blossoms of Sumizome ~ Border of Life (Touhou 7: Perfect Cherry Blossom) Guitar Tab

Submitted: Sep 18, 2015 by Bessem

5
Average: 5 (4 votes)
Download | Listen
Game: Touhou 7: Perfect Cherry Blossom
Composer(s): ZUN
Style: 2 or more instruments, Arrangement
Series: Touhou

This song is also called Yuyuko Saigyouji's Theme

Click here for a video example.

AutoScroll: Slow | Medium | Fast
well , i think this is one of the saddest OST that i've listened to
pleaze rate , share , play , comment , cry , spam , tweet , listen , re-tweet and enjoy

Piste 1



     Q.     Q.     Q       Q.     Q.     Q        Q    Q    Q     Q     
E||---------7------9----|---------7------9----|--10----7----9----------|
B||--7------------------|--7------------------|------------------10----|
G||---------------------|---------------------|------------------------|
D||---------------------|---------------------|------------------------|
A||---------------------|---------------------|------------------------|
E||---------------------|---------------------|------------------------|


  W                   Q.     Q.     Q       Q.     Q.     Q     
--7----------------|---------5------7----|---------5------7----|
-------------------|--7------------------|--5------------------|
-------------------|---------------------|---------------------|
-------------------|---------------------|---------------------|
-------------------|---------------------|---------------------|
-------------------|---------------------|---------------------|


                                               ^      ^      ^     
   Q    Q    Q     Q       W                   Q.     Q.     Q     
--10----7----9----------|--7----------------|---------7------9----|
------------------10----|-------------------|--7------7------7----|
------------------------|-------------------|--7------------------|
------------------------|-------------------|---------------------|
------------------------|-------------------|---------------------|
------------------------|-------------------|---------------------|


  ^      ^      ^        ^    ^    ^     ^       ^                 
  Q.     Q.     Q        Q    Q    Q     Q       W                 
---------7------9----|--10----7----9----------|--7----------------|
--7------7------7----|--12----7----7----10----|--7----------------|
--7------------------|-------------------9----|--7----------------|
---------------------|------------------------|-------------------|
---------------------|------------------------|-------------------|
---------------------|------------------------|-------------------|


  ^      ^      ^       ^      ^      ^        ^    ^    ^     ^     
  Q.     Q.     Q       Q.     Q.     Q        Q    Q    Q     Q     
---------5------7----|---------5------7----|--10----7----9----------|
--7------7------7----|--5------5------7----|--12----7----7----10----|
--7------------------|--6------------------|-------------------9----|
---------------------|---------------------|------------------------|
---------------------|---------------------|------------------------|
---------------------|---------------------|------------------------|


  ^                                                                           
  W                    Q.       Q.      E   E       Q.       Q.      E   E    
--7----------------|----------------------------|----------------------------|
--7----------------|--(3)------(2)---------(3)--|--(3)------(2)---------(3)--|
--7----------------|--(4)------(3)--------------|--(4)------(3)--------------|
--9----------------|----------------------------|----------------------------|
-------------------|----------------------------|----------------------------|
-------------------|----------------------------|----------------------------|


  E  E  E  E  E  E  E  E     E  E  E  E  E  E  E  E   
--2--------0-----------0--|--2--------0-----------3--|
-----3--------2-----------|-----3--------2-----------|
--------4--------3--------|--------4--------3--------|
--------------------------|--------------------------|
--------------------------|--------------------------|
--------------------------|--------------------------|


                                                        ^      ^      ^     
  E  E  E  E  E  E  E  E     E  E  E  E  E  E  E  E     Q.     Q.     Q     
--2--------0-----------0--|--2--------3--0-----------|---------7------9----|
-----3--------2-----------|-----3--------------3--5--|--7------7------7----|
--------4--------3--------|--------4-----------------|--7------------------|
--------------------------|--------------------------|---------------------|
--------------------------|--------------------------|---------------------|
--------------------------|--------------------------|---------------------|


  ^      ^      ^        ^    ^    ^     ^       ^                 
  Q.     Q.     Q        Q    Q    Q     Q       W                 
---------7------9----|--10----7----9----------|--7----------------|
--7------7------7----|--12----7----7----10----|--7----------------|
--7------------------|-------------------9----|--7----------------|
---------------------|------------------------|-------------------|
---------------------|------------------------|-------------------|
---------------------|------------------------|-------------------|


  ^      ^      ^       ^      ^      ^        ^    ^    ^     ^     
  Q.     Q.     Q       Q.     Q.     Q        Q    Q    Q     Q     
---------5------7----|---------5------7----|--10----7----9----------|
--7------7------7----|--5------5------7----|--12----7----7----10----|
--7------------------|--6------------------|-------------------9----|
---------------------|---------------------|------------------------|
---------------------|---------------------|------------------------|
---------------------|---------------------|------------------------|


  ^                   ^      ^      ^       ^      ^      ^     
  W                   Q.     Q.     Q       Q.     Q.     Q     
--7----------------|---------7------9----|---------7------9----|
--7----------------|--7------7------7----|--7------7------7----|
--7----------------|--7------------------|--7------------------|
--9----------------|---------------------|---------------------|
-------------------|---------------------|---------------------|
-------------------|---------------------|---------------------|


   ^     ^     ^     ^        ^                    ^        ^       ^      
   Q     Q     Q     Q        W                    Q.       Q.      Q      
--10----12----14----17----|--14----------------|--14~--------------14~----|
--12----------------------|--------------------|-----------12-------------|
--------------------------|--------------------|--------------------------|
--------------------------|--------------------|--------------------------|
--------------------------|--------------------|--------------------------|
--------------------------|--------------------|--------------------------|


   ^        ^       ^        ^    ^     ^     ^        ^                 
   Q.       Q.      Q        Q    Q     Q     Q        W                 
--14~--------------14~----|--7----9----10----17----|--19----------------|
-----------12-------------|------------------------|--------------------|
--------------------------|------------------------|--------------------|
--------------------------|------------------------|--------------------|
--------------------------|------------------------|--------------------|
--------------------------|------------------------|--------------------|


  Q    E  E  E  E  E  E     Q     Q    Q    Q       Q    E  E  E  E  E  E   
--7----5--7-----7--5--7--|-------10----9----7----|--7----5--7-----7--5--7--|
-------------------------|--7--------------------|-------------------------|
-------------------------|-----------------------|-------------------------|
-------------------------|-----------------------|-------------------------|
-------------------------|-----------------------|-------------------------|
-------------------------|-----------------------|-------------------------|


  W                    Q    E   E  E   E  E   E     Q        Q     Q     Q     
-------------------|--10----9--10-----10--9--10--|--7----12g14----12----10----|
--7----------------|-----------------------------|----------------------------|
-------------------|-----------------------------|----------------------------|
-------------------|-----------------------------|----------------------------|
-------------------|-----------------------------|----------------------------|
-------------------|-----------------------------|----------------------------|


   Q    E   E  E   E  E   E      W                                     
--10----9--10-----10--9--10--|--------------------|-------------------|
-----------------------------|--11----------------|-------------------|
-----------------------------|--------------------|-------------------|
-----------------------------|--------------------|-------------------|
-----------------------------|--------------------|-------------------|
-----------------------------|--------------------|-------------------|


  ^                      ^                      ^                    
  Q    Q    Q    Q       Q    Q    Q    Q       Q    Q    Q    Q     
----------------------|----------------------|----------------------|
----------------------|----------------------|----------------------|
--4----4----4----4----|--2----2----2----2----|--0----0----2----2----|
--4----4----4----4----|--4----4----4----4----|--0----0----2----2----|
--5----5----5----5----|--5----5----5----5----|--2----2----4----4----|
--7----7----7----7----|--5----5----5----5----|--3----3----5----5----|


                         ^                      ^                    
  Q    Q    Q    Q       Q    Q    Q    Q       Q    Q    Q    Q     
----------------------|----------------------|----------------------|
----------------------|----------------------|----------------------|
--4----4----4----4----|--4----4----4----4----|--2----2----2----2----|
--4----4----4----4----|--4----4----4----4----|--4----4----4----4----|
--5----5----5----5----|--5----5----5----5----|--5----5----5----5----|
--7----7----7----7----|--7----7----7----7----|--5----5----5----5----|


  ^                                             ^                    
  Q    Q    Q    Q       Q    Q    Q    Q       Q    Q    Q    Q     
----------------------|----------------------|----------------------|
----------------------|----------------------|----------------------|
--0----0----2----2----|--4----4----4----4----|--4----4----4----4----|
--0----0----2----2----|--4----4----4----4----|--4----4----4----4----|
--2----2----4----4----|--5----5----5----5----|--5----5----5----5----|
--3----3----5----5----|--7----7----7----7----|--7----7----7----7----|


  ^                      ^                                           
  Q    Q    Q    Q       Q    Q    Q    Q       Q    Q    Q    Q     
----------------------|----------------------|----------------------|
----------------------|----------------------|----------------------|
--2----2----2----2----|--0----0----2----2----|--4----4----4----4----|
--4----4----4----4----|--0----0----2----2----|--4----4----4----4----|
--5----5----5----5----|--2----2----4----4----|--5----5----5----5----|
--5----5----5----5----|--3----3----5----5----|--7----7----7----7----|


  ^                      ^                      ^                    
  Q    Q    Q    Q       Q    Q    Q    Q       Q    Q    Q    Q     
----------------------|----------------------|----------------------|
----------------------|----------------------|----------------------|
--4----4----4----4----|--2----2----2----2----|--0----0----2----2----|
--4----4----4----4----|--4----4----4----4----|--0----0----2----2----|
--5----5----5----5----|--5----5----5----5----|--2----2----4----4----|
--7----7----7----7----|--5----5----5----5----|--3----3----5----5----|


                         ^                      ^                    
  Q    Q    Q    Q       Q    Q    Q    Q       Q    Q    Q    Q     
----------------------|----------------------|----------------------|
----------------------|----------------------|----------------------|
--4----4----4----4----|--5----5----5----5----|--3----3----3----3----|
--4----4----4----4----|--5----5----5----5----|--5----5----5----5----|
--5----5----5----5----|--6----6----6----6----|--6----6----6----6----|
--7----7----7----7----|--8----8----8----8----|--6----6----6----6----|


  ^                      ^                      ^                    
  Q    Q    Q    Q       Q    Q    Q    Q       Q    Q    Q    Q     
----------------------|----------------------|----------------------|
----------------------|----------------------|----------------------|
--1----1----3----3----|--5----5----5----5----|--5----5----5----5----|
--1----1----3----3----|--5----5----5----5----|--5----5----5----5----|
--3----3----5----5----|--6----6----6----6----|--6----6----6----6----|
--4----4----6----6----|--8----8----8----8----|--8----8----8----8----|


  ^                      ^                      ^                    
  Q    Q    Q    Q       Q    Q    Q    Q       Q    Q    Q    Q     
----------------------|----------------------|----------------------|
----------------------|----------------------|----------------------|
--3----3----3----3----|--1----1----3----3----|--5----5----5----5----|
--5----5----5----5----|--1----1----3----3----|--5----5----5----5----|
--6----6----6----6----|--3----3----5----5----|--6----6----6----6----|
--6----6----6----6----|--4----4----6----6----|--8----8----8----8----|


  ^                      ^                      ^                    
  Q    Q    Q    Q       Q    Q    Q    Q       Q    Q    Q    Q     
----------------------|----------------------|----------------------|
----------------------|----------------------|----------------------|
--5----5----5----5----|--3----3----3----3----|--1----1----3----3----|
--5----5----5----5----|--5----5----5----5----|--1----1----3----3----|
--6----6----6----6----|--6----6----6----6----|--3----3----5----5----|
--8----8----8----8----|--6----6----6----6----|--4----4----6----6----|


  ^                      ^                      ^                    
  Q    Q    Q    Q       Q    Q    Q    Q       Q    Q    Q    Q     
----------------------|----------------------|----------------------|
----------------------|----------------------|----------------------|
--5----5----5----5----|--5----5----5----5----|--3----3----3----3----|
--5----5----5----5----|--5----5----5----5----|--5----5----5----5----|
--6----6----6----6----|--6----6----6----6----|--6----6----6----6----|
--8----8----8----8----|--8----8----8----8----|--6----6----6----6----|


  ^                      ^                      ^                 
  Q    Q    Q    Q       Q    Q    Q    Q       W                 
----------------------|----------------------|-------------------|
----------------------|----------------------|-------------------|
--1----1----3----3----|--5----5----5----5----|--5----------------|
--1----1----3----3----|--5----5----5----5----|--5----------------|
--3----3----5----5----|--6----6----6----6----|--6----------------|
--4----4----6----6----|--8----8----8----8----|--8----------------|


  E  E  E  E  E  E  E  E     E  E  E  E  E  E  E  E   
-----1--3-----1-----------|--------3-----1-----------|
-----------4-----3--4-----|-----6-----4-----3--4-----|
-----------------------5--|-----------------------5--|
--------------------------|--------------------------|
--------------------------|--------------------------|
--------------------------|--------------------------|


  E  E  E  E  E  E  E  E     E  E  E  E  E  E  E  E   
--------------------------|--------------3-----------|
--4--------4--3--------3--|-----------4-----4--------|
-----5-----------3--------|--5-----5-----------5-----|
--------6-----------3-----|-----5-----------------5--|
--------------------------|--------------------------|
--------------------------|--------------------------|


  E  E  E  E  E  E  E  E     E  E  E  E  E  E  E  E   
--------------------------|--------------------------|
--------------------------|-----------3--------3--6--|
--------0--3-----0--3-----|--------4--------4--------|
-----3--------3--------3--|-----5--------5-----------|
--------------------------|--------------------------|
--------------------------|--------------------------|


  E  E  E  E  E  E  E  E     E  E  E  S  S  E  E  E  E   
--3--------3--1--------1--|-----------------------------|
-----4-----------3--------|--4--1-----3h-4p-3--1--------|
--------5-----------3-----|--------0--------------0-----|
--------------------------|-----------------------------|
--------------------------|--------------------------3--|
--------------------------|-----------------------------|


  E  E  E  E  E  E  E  E     E  E  E  E  E  E  E  E   
-----1--3-----1-----------|-----1--3-----1-----------|
-----------4-----3--4-----|-----------4-----3--4-----|
-----------------------5--|-----------------------5--|
--------------------------|--------------------------|
--3-----------------------|--1-----------------------|
--------------------------|--------------------------|


  E  E  E  E  E  E  E  E     E  E  E  E  E  E  E  E   
--------------------------|--------------3-----------|
--4--------4--3--------3--|-----------4-----4--------|
-----5-----------3--------|--5-----5-----------5-----|
--------6-----------3-----|-----5-----------------5--|
--------------1-----------|--3-----------------------|
--4-----------------------|--------------------------|


  E  E  E  E  E  E  E  E     E  E  E  E  E  E  E  E   
--------------------------|--------------------------|
--------------------------|-----------3--------3--6--|
--------0--3-----0--3-----|--------4--------4--------|
-----3--------3--------3--|-----5--------5-----------|
--------------------------|--------------------------|
--1-----------------------|--3-----------------------|


  E  E  E  E  E  E  E  E     E  E  E  S  S E  E  E  E     W                  
--3--------3--1--------1--|-------------------------3--|--L----------------||
-----4-----------3--------|--4--------3h-4-3--------4--|--L----------------||
--------5-----------3-----|-----5-------------5-----5--|--L----------------||
--------------------------|--------5-------------5--5--|--L----------------||
--------------1-----------|--3----------------------3--|--L----------------||
--4-----------------------|----------------------------|-------------------||




Piste 2



     E  E  E  E  E  E  E  E     E  E  E  E  E  E  E  E   
E||--------2-----0-----------|--------2-----0-----------|
B||-----5-----3-----2--3-----|-----5-----3-----2--3-----|
G||-----------------------4--|-----------------------4--|
D||--------------------------|--------------------------|
A||--2-----------------------|--0-----------------------|
E||--------------------------|--------------------------|


  E  E  E  E  E  E  E  E     E  E  E  E  E  E  E  E   
--------------------------|--------------2-----------|
--3--------3--2--------2--|-----------3-----3--------|
-----4-----------2--------|--4-----4-----------4-----|
--------5-----------2-----|-----4-----------------4--|
--------------0-----------|--2-----------------------|
--3-----------------------|--------------------------|


  E  E  E  E  E  E  E  E     E  E    E  E  E  E  E  E   
--------------------------|-------------------------0--|
--------------------------|-------------2--------2-----|
-----------2--------2-----|--------2g3--------3--------|
-----2--4-----2--4-----2--|-----4----------4-----------|
--------------------------|----------------------------|
--0-----------------------|--2-------------------------|


  E  E  E  E  E  E  E  E     E  E  E  S  S  E  E  E  E   
--2--------2--0--------0--|-----------------------------|
-----3-----------2--------|--3--------2h-3p-2-----------|
--------4-----------2-----|-----4--------------4--------|
--------------------------|--------4--------------4-----|
--------------0-----------|--2-----------------------2--|
--3-----------------------|-----------------------------|


  E  E  E  E  E  E  E  E     E  E  E  E  E  E  E  E   
--------2-----0-----------|--------2-----0-----------|
-----5-----3-----2--3--0--|-----5-----3-----2--3-----|
--------------------------|-----------------------4--|
--------------------------|--------------------------|
--2-----------------------|--0-----------------------|
--------------------------|--------------------------|


  E  E  E  E  E  E  E  E     E  E  E  E  E  E  E  E   
--------------------------|--------------2-----------|
--3--------3--2--------2--|-----------3-----3--------|
-----4-----------2--------|--4-----4-----------4-----|
--------5-----------2-----|-----4-----------------4--|
--------------0-----------|--2-----------------------|
--3-----------------------|--------------------------|


  E  E  E  E  E  E  E  E     E  E    E  E  E  E  E  E   
--------------------------|-------------------------0--|
--------------------------|-------------2--------2-----|
-----------2--------2-----|--------2g3--------3--------|
-----2--4-----2--4-----2--|-----4----------4-----------|
--------------------------|----------------------------|
--0-----------------------|--2-------------------------|


  E  E  E  E  E  E  E  E     E  E  E  E  H           E  E  E  E  E  E  Q     
--2--------2--0--------0--|--------------2--------|-------------------------|
-----3-----------2--------|--3--------3--L--------|--3--------2-------------|
--------4-----------2-----|--------4--L--L--------|-----4--------3----------|
--------------------------|-----4--L--L--L--------|--------5--------4-------|
--------------0-----------|--2--L--L--L--L--------|-------------------------|
--3-----------------------|-----------------------|--3--------2--------2----|


  E  E  E  E  E  E  Q       E  E  E  E  E  E  Q       E  E  E  E  E  E  Q     
-------------------------|-------------------------|-------------------------|
--3--------2-------------|--3--------2-------------|--3--------2-------------|
-----4--------3----------|-----4--------3----------|-----4--------3----------|
--------5--------4-------|--------5--------4-------|--------5--------4-------|
-------------------------|-------------------------|-------------------------|
--3--------2--------2----|--3--------2--------2----|--3--------2-------------|


  E  E  E  E  E  E  Q       E  E  E  E  E  E  Q       E  E  E  E  E  E  E  E   
-------------------------|-------------------------|--------2-----0-----------|
--3--------2-------------|--3--------2-------------|-----5-----3-----2--3--0--|
-----4--------3----------|-----4--------3----------|--------------------------|
--------5--------4-------|--------5--------4-------|--------------------------|
-------------------------|-------------------------|--2-----------------------|
--3--------2-------------|--3--------2-------------|--------------------------|


  E  E  E  E  E  E  E  E     E  E  E  E  E  E  E  E   
--------2-----0-----------|--------------------------|
-----5-----3-----2--3-----|--3--------3--2--------2--|
-----------------------4--|-----4-----------2--------|
--------------------------|--------5-----------2-----|
--0-----------------------|--------------0-----------|
--------------------------|--3-----------------------|


  E  E  E  E  E  E  E  E     E  E  E  E  E  E  E  E   
--------------2-----------|--------------------------|
-----------3-----3--------|--------------------------|
--4-----4-----------4-----|-----------2--------2-----|
-----4-----------------4--|-----2--4-----2--4-----2--|
--2-----------------------|--------------------------|
--------------------------|--0-----------------------|


  E  E    E  E  E  E  E  E     E  E  E  E  E  E  E  E   
-------------------------0--|--2--------2--0--------0--|
-------------2--------2-----|-----3-----------2--------|
--------2g3--------3--------|--------4-----------2-----|
-----4----------4-----------|--------------------------|
----------------------------|--------------0-----------|
--2-------------------------|--3-----------------------|


  E  E  E  S  S  E  E  E  E     E  E  E  E  E  E  E  E   
-----------------------------|--------2-----0-----------|
--3--------2h-3p-2-----------|-----5-----3-----2--3--0--|
-----4--------------4--------|--------------------------|
--------4--------------4-----|--------------------------|
--2-----------------------2--|--2-----------------------|
-----------------------------|--------------------------|


  E  E  E  E  E  E  E  E     E  E  E  E  E  E  E  E   
--------2-----0-----------|--------------------------|
-----5-----3-----2--3-----|--3--------3--2--------2--|
-----------------------4--|-----4-----------2--------|
--------------------------|--------5-----------2-----|
--0-----------------------|--------------0-----------|
--------------------------|--3-----------------------|


  E  E  E  E  E  E  E  E     E  E  E  E  E  E  E  E   
--------------2-----------|--------------------------|
-----------3-----3--------|--------------------------|
--4-----4-----------4-----|-----------2--------2-----|
-----4-----------------4--|-----2--4-----2--4-----2--|
--2-----------------------|--------------------------|
--------------------------|--0-----------------------|


  E  E    E  E  E  E  E  E     E  E  E  E  E  E  E  E   
-------------------------0--|--2--------2--0--------0--|
-------------2--------2-----|-----3-----------2--------|
--------2g3--------3--------|--------4-----------2-----|
-----4----------4-----------|--------------------------|
----------------------------|--------------0-----------|
--2-------------------------|--3-----------------------|


  E  E  E  S  S  E  E  E  E     E  E  E  E  E  E  E  E   
-----------------------------|--------------------------|
--3--------2h-3p-2-----------|--------0-----------2-----|
-----4--------------4--------|--------0-----------2-----|
--------4--------------4-----|-----0-----0-----2-----2--|
--2-----------------------2--|--------------0-----------|
-----------------------------|--3-----------------------|


  E  E  E  E  E  E  E  E     E  E  E  E  E  E  E  E   
--------------------------|--------------------------|
--------3-----------3-----|--------0-----------2-----|
--------4-----------4-----|--------0-----------2-----|
-----4-----4-----4--------|-----0-----0-----2-----2--|
--2-----------2--------0--|--------------0-----------|
--------------------------|--3-----------------------|


                NH                                    
  E  E  Q       H            E  E  E  E  E  E  E  E   
-------------<>14~--------|--------------------------|
--------3-------L---------|--------0-----------2-----|
--------4-------L---------|--------0-----------2-----|
-----4----------L---------|-----0-----0-----2-----2--|
--2-------------L---------|--------------0-----------|
--------------------------|--3-----------------------|


  E  E  E  E  E  E  E  E     E  E  E  E  E  E  E  E     E  E  E  E  E.  E.  E   
--------------------------|--------------------------|--------------2---2---2--|
--------3-----------3-----|--------0-----------2-----|--------2-----2---2---2--|
--------4-----------4-----|--------0-----------2-----|--------3-----3---3---3--|
-----4-----4-----4--------|-----0-----0-----2-----2--|-----2-----2-------------|
--2-----------2--------0--|--------------0-----------|--1----------------------|
--------------------------|--3-----------------------|-------------------------|


  H        E  E  E  E     H         E  E  E  E     H         E  E  E  E   
--L--------------------|------------------------|------------------------|
--L--------------------|------------------------|------------------------|
--L--------------4--6--|--7~--------------4--6--|--7~-----------4--6--7--|
--------------4--------|---------------4--------|------------------------|
-----------------------|------------------------|------------------------|
-----------------------|------------------------|------------------------|


  E  E  E  E  E  E  E  E      H        E  E  E  E     H         E  E  E   E    
---------------------------|-----------------------|--7~-----------7--9--10~--|
--7--5--7-----5------------|-----------------5--7--|--------------------------|
-----------7-----4--6--7~--|--L-----------7--------|--------------------------|
---------------------------|-----------------------|--------------------------|
---------------------------|-----------------------|--------------------------|
---------------------------|-----------------------|--------------------------|


                                                       ^    
  H        E  E  E   E      E  E  E  S   S E   E  E    E    
--L-----------7--9--10~--|--L--7-----9h-10-9---------------|
-------------------------|--------7-----------10-----------|
-------------------------|------------------------9S--11~--|
-------------------------|---------------------------------|
-------------------------|---------------------------------|
-------------------------|---------------------------------|


   H        E  E  E  E     H         E  E  E  E     H         E  E  E  E   
------------------------|------------------------|------------------------|
------------------------|------------------------|------------------------|
---L--------------4--6--|--7~--------------4--6--|--7~-----------4--6--7--|
---------------4--------|---------------4--------|------------------------|
------------------------|------------------------|------------------------|
------------------------|------------------------|------------------------|


  E  E  E  E  E  E  E  E      H        E  E  E  E     H         E  E  E   E    
---------------------------|-----------------------|--7~-----------7--9--10~--|
--7--5--7-----5------------|-----------------5--7--|--------------------------|
-----------7-----4--6--7~--|--L-----------7--------|--------------------------|
---------------------------|-----------------------|--------------------------|
---------------------------|-----------------------|--------------------------|
---------------------------|-----------------------|--------------------------|


                                                   ^                         
  H        Q    E   E     E  E  E   E  E   E  E    E      H        H         
--L----------------10--|--L--7-----10--9---------------|--------------------|
-----------------------|--------7---------10-----------|--------------------|
-----------------------|----------------------9S--11~--|--L-----------------|
-----------------------|-------------------------------|--------------------|
-----------------------|-------------------------------|--------------------|
-----------------------|-------------------------------|--------------------|


  Q.     E  Q.     E     Q    Q    Q    Q       Q    E  Q    E  E  E   
----------------------|----------------------|------------------------|
----------------------|----------------------|------------------------|
--5------3--5------3--|--5----3---------3----|--5----3--5----3--5--3--|
----------------------|------------5---------|------------------------|
----------------------|----------------------|------------------------|
----------------------|----------------------|------------------------|


  Q    Q    E  E  E  E     H.           E  E     H.           E  E   
------------------------|---------------------|---------------------|
--4---------------------|---------------------|---------------4-----|
-------7----5--3-----3--|--5------------0--3--|------------------7--|
------------------5-----|---------------------|--3------------------|
------------------------|---------------------|---------------------|
------------------------|---------------------|---------------------|


  Q    Q    Q    Q       H.           E  E     E  E  E  E  Q    E  E   
----------------------|---------------3--6--|--8--8--8--6--8----8--6--|
--4-------------------|---------------------|--8----------------------|
-------5----7----3----|--5------------5--3--|-------------------------|
----------------------|---------------------|-------------------------|
----------------------|---------------------|-------------------------|
----------------------|---------------------|-------------------------|


  Q    Q    Q    Q       Q    E  Q    E  E  E      Q     Q    E  E  E  E   
--8----6---------6----|--8----6--8----6--8--6--|--11----10----8--6-----6--|
------------8---------|------------------------|--------------------8-----|
----------------------|----------5----3--5--3--|---8-----7----5--3-----3--|
----------------------|------------------------|--------------------5-----|
----------------------|------------------------|--------------------------|
----------------------|------------------------|--------------------------|


  H         H            H.            E   E     Q     Q     Q     Q     
--8--------15--------|--10------------11--10--|--8----15----13----18----|
---------------------|------------------------|-------------------------|
--5--------12--------|---7-------------8---7--|--5----12----10----15----|
---------------------|------------------------|-------------------------|
---------------------|------------------------|-------------------------|
---------------------|------------------------|-------------------------|


   ^                                                                
   W                                       E  E  E  E  E  E  E  E   
---8----------------|-------------------|-----------------------3--|
---8----------------|-------------------|-----------1-----1--4-----|
---8----------------|-------------------|--------0-----0-----------|
--10----------------|-------------------|-----1--------------------|
--------------------|-------------------|--3-----------------------|
--------------------|-------------------|--------------------------|


  E  E  E  E  E  E  E  E     E  E  Q    E  E  Q     
-----------------------3--|------------------------|
-----------3--------3-----|------------------------|
-----0--3-----0--3--------|--------5----------7----|
--------------------------|--------6----------8----|
--1-----------------------|-----6----------8-------|
--------------------------|--4----------6----------|


  E   E   E  Q     E   E  E     E  E  E  E  E  E  E  E   
-----------------------------|--------------------------|
-------------8---------------|--------------1-----------|
-------------8---------------|-----------0-----0--------|
---------10-------10---------|--------3-----------3-----|
-----10---------------10-----|-----3-----------------3--|
--8-----------------------8--|--1-----------------------|


  E  E  E  E  E  E  E  E     E  E  E  E  E  E  E  E     W                 
--------------------------|--------------------------|-------------------|
--------------3-----------|--------------------------|-------------------|
-----------4-----4--------|-----------5-----------7--|-------------------|
--------3-----------3-----|--------6-----------8-----|-------------------|
-----5-----------------5--|-----6-----------8--------|--3----------------|
--3-----------------------|--4-----------6-----------|-------------------|


  ^      ^       ^       ^      ^       ^        ^     ^     ^     ^     
  Q.     Q.      Q       Q.     Q.      Q        Q     Q     Q     Q     
---------8------10----|---------8------10----|--11----13----15----18----|
--8------8-------8----|--8------8-------8----|--13----------------------|
--8-------------------|--8-------------------|--------------------------|
----------------------|----------------------|--------------------------|
----------------------|----------------------|--------------------------|
----------------------|----------------------|--------------------------|


   ^                    ^        ^       ^         ^        ^       ^      
   W                    Q.       Q.      Q         Q.       Q.      Q      
--15----------------|--15~--------------15~----|--15~--------------15~----|
--------------------|-----------13-------------|-----------13-------------|
--------------------|--------------------------|--------------------------|
--------------------|--------------------------|--------------------------|
--------------------|--------------------------|--------------------------|
--------------------|--------------------------|--------------------------|


   ^     ^     ^     ^        ^                                      
   Q     Q     Q     Q        W                                      
--------------------18----|--20----------------|-------------------||
--13----15----16----------|--------------------|-------------------||
--------------------------|--------------------|-------------------||
--------------------------|--------------------|-------------------||
--------------------------|--------------------|-------------------||
--------------------------|--------------------|-------------------||
Login or Register to remove this ad.

1 comment on Bloom Nobly, Cherry Blossoms of Sumizome ~ Border of Life

Thanks for this great

5

Thanks for this great arrangement!