Login or Register to remove this ad.

Voile, The Magic Library (Dark PHOENiX Version) (Touhou 6: Embodiment of Scarlet Devil) Guitar Tab

Submitted: Mar 10, 2011 by Tamae (Last updated: Mar 10, 2011)

3
Average: 3 (2 votes)
Download | Listen
Game: Touhou 6: Embodiment of Scarlet Devil
Composer(s): ZUN
Style: Transcription
Series: Touhou

AutoScroll: Slow | Medium | Fast
Song : Voile, the Magic Library (Guitar solo)
Game : Embodiment of Scarlet Devil
Composer : ZUN ; Arranger : Yuu & Himekawa Shion
Tabbed the 03/07/11 by Tamae                             


Note: The guitar solo starts at 0:54 and again at 2:21 on the mp3


     Q.     Q.     Q       Q.     Q.     Q       Q.     Q    E  E  E   
E||---------------------|---------------------|-----------------------|
B||--5------3-----------|---------------------|-----------------------|
G||----------------5----|--4------2-----------|--------------------4--|
D||---------------------|----------------5----|--2------0----2--5-----|
A||---------------------|---------------------|-----------------------|
E||---------------------|---------------------|-----------------------|


  Q.     Q.     E  E     Q.     Q.     Q       Q.     Q.     Q     
----------------------|----------------3----|--5------7------8----|
-------------------3--|--5------3-----------|---------------------|
--5------5------5-----|---------------------|---------------------|
----------------------|---------------------|---------------------|
----------------------|---------------------|---------------------|
----------------------|---------------------|---------------------|


   Q.     Q     E  E  E     Q.     E  H           Q.     Q.     Q     
--10---------------7--8--|--7------5-----------|---------------------|
----------9----10--------|------------5--------|--5------3-----------|
-------------------------|---------------------|----------------5----|
-------------------------|---------------------|---------------------|
-------------------------|---------------------|---------------------|
-------------------------|---------------------|---------------------|


  Q.     Q.     Q       Q.     Q    E  E  E     Q.     Q.     E  E   
---------------------|-----------------------|----------------------|
---------------------|-----------------------|-------------------3--|
--4------2-----------|--------------------4--|--5------5------5-----|
----------------5----|--2------0----2--5-----|----------------------|
---------------------|-----------------------|----------------------|
---------------------|-----------------------|----------------------|


  Q.     Q.     Q       Q.     Q.     Q        Q.      E   E   E   S  S  E   
----------------3----|--5------7------8----|--10------10--15--10-----10-----|
--5------3-----------|---------------------|----------------------12----10--|
---------------------|---------------------|--------------------------------|
---------------------|---------------------|--------------------------------|
---------------------|---------------------|--------------------------------|
---------------------|---------------------|--------------------------------|


  Q    E  Q    E  Q      
-----------------------||
--9-------9-------9----||
-----------------------||
-----------------------||
-----------------------||
-----------------------||


Duration Legend
---------------
H - half
Q - quarter
E - 8th
S - 16th

. - doted note
Login or Register to remove this ad.