U.N. Owen Was Her? (Touhou 6: Embodiment of Scarlet Devil) Guitar Tab

Submitted: Nov 02, 2013 by Shrinx

4.666665
Average: 4.7 (3 votes)
Download | Listen
Game: Touhou 6: Embodiment of Scarlet Devil
Composer(s): ZUN
Style: 2 or more instruments, Transcription
Series: Touhou

This song is also called Flandre's Theme

AutoScroll: Slow | Medium | Fast
U.N. Owen Was Her?
Touhou 6: The Embodiment of Scarlet Devil
Composed by ZUN
Tabbed by Shrinx
NOTE: The time signature and BPM in this track change as it goes.
Be wary of these changes as you are reading this transcription.

Standard Tuning


Guitar 1

Time signature - 5/4
BPM - 155

  S  S S S S S S S S S S S E. E S E   S  S S S S S S S S S S S E. E S E
|-----------------------------------|------------------------------------|
|-2------2-----2-----2-----1--1---1-|-2------2-----2-----2-----4--4---4--|
|----3-----3-----3-----3------------|----3-----3-----3-----3-------------|4x
|------3-----3-----3-----3----------|------3-----3-----3-----3-----------|
|-----------------------------------|------------------------------------|
|-----------------------------------|------------------------------------|

Time signature - 4/4
BPM - 158

  H    H       H     H      E E E E E E E E   E  E E  E E  E E  E
|-9----8----|-12----11----|---9---9---8---8-|---12---12---11---11--|
|-----------|-------------|-----------------|----------------------|
|-----------|-------------|-----------------|----------------------|
|-----------|-------------|-----------------|----------------------|
|-----------|-------------|-----------------|----------------------|
|-----------|-------------|-----------------|----------------------|


  E E E E E E E E   E  E E  E E  E E  E   E E E E E E E E   E  E E  E  E   E E  E
|---9---9---8---8-|---12---12---11---11-|---9---9---8---8-|---12---12-----11---11-|
|-----------------|---------------------|-----------------|-----------------------|
|-----------------|---------------------|-----------------|-----------------------|
|-----------------|---------------------|-----------------|-----------------------|
|-----------------|---------------------|-----------------|-----------------------|
|-----------------|---------------------|-----------------|-----------------------|


  Q  Q  Q  Q    Q  E E Q  Q    E E E E E S S E E   E E E E H
|----1-----1--|------1----4--|-6---8-9-8-9-8-6---|--------------|
|-------1-----|-2--4---4-----|---6-------------9-|-6-9---6------|
|-3-----------|--------------|-------------------|-----8---6----|
|-------------|--------------|-------------------|--------------|
|-------------|--------------|-------------------|--------------|
|-------------|--------------|-------------------|--------------|


  Q  Q  Q  Q    Q  E E Q  Q    E E E E E S S E E   W
|----1-----1--|------1----4--|-6---8-9-8-9-8-6---|-6----|
|-------1-----|-2--4---4-----|---6-------------9-|------|
|-3-----------|--------------|-------------------|------|
|-------------|--------------|-------------------|------|
|-------------|--------------|-------------------|------|
|-------------|--------------|-------------------|------|


  Q  Q  Q  Q    Q  E E Q  Q    E E E E E S S E E   E E E E H
|----1-----1--|------1----4--|-6---8-9-8-9-8-6---|--------------|
|-------1-----|-2--4---4-----|---6-------------9-|-6-9---6------|
|-3-----------|--------------|-------------------|-----8---6----|
|-------------|--------------|-------------------|--------------|
|-------------|--------------|-------------------|--------------|
|-------------|--------------|-------------------|--------------|


  Q  Q  Q  Q    Q  E E Q  Q    E E E E E S S E E   W
|----1-----1--|------1----4--|-6---8-9-8-9-8-6---|-6----|
|-------1-----|-2--4---4-----|---6-------------9-|------|
|-3-----------|--------------|-------------------|------|
|-------------|--------------|-------------------|------|
|-------------|--------------|-------------------|------|
|-------------|--------------|-------------------|------|

BPM - 151
  |-3-| |-3-| |-3-| |-3-|   |-3-| |-3-| |-3-| |-3-|   |-3-| |-3-| |-3-| |-3-|   |-3-| |-3-| |-3-| |-3-|
  E E E E E E E E E E E E   E E E E E E E E E E E E   E E E E E E E E E E E E   E E E E E E E E E E E E
|-6-----6-----6-----6-----|-6-----6-----6-----6-----|-5-----5-----5-----5-----|-5-----5-----5-----5-----|
|---6-----6-----6-----6---|---6-----6-----6-----6---|---6-----6-----6-----6---|---6-----6-----6-----6---|
|-----8-----8-----8-----8-|-----8-----8-----8-----8-|-----7-----7-----7-----7-|-----7-----7-----7-----7-|
|-------------------------|-------------------------|-------------------------|-------------------------|
|-------------------------|-------------------------|-------------------------|-------------------------|
|-------------------------|-------------------------|-------------------------|-------------------------|


  |-3-| |-3-| |-3-| |-3-|   |-3-| |-3-|     |-3--|   |-3-| |-3-| |-3-| |-3-|   |-3-| |-3-|
  E E E E E E E E E E E E   E E E E E E Q  +E  E E   E E E E E E E E E E E E   E E E E E E H
|-5-----5-----3-----3-----|-1-----0-1-3------------|-------------------------|-----------3-5----|
|---6-----6-----5-----5---|---3---------3--(3)---1-|-3-----3-----5-----5-----|-5-----5-6--------|
|-----7-----7-----5-----5-|-----2--------------2---|---2-----2-----5-----5---|---6--------------|
|-------------------------|------------------------|-----3-----3-----5-----5-|-----5------------|
|-------------------------|------------------------|-------------------------|------------------|
|-------------------------|------------------------|-------------------------|------------------|


  |-3-| |-3-| |-3-| |-3-|   |-3-| |-3-|     |-3--|   |-3-| |-3-| |-3-| |-3-|   |-3-| |-3-| |-3-|
  E E E E E E E E E E E E   E E E E E E Q  +E  E E   E E E E E E E E E E E E   E E E E E E Q Q Q
|-5-----5-----3-----3-----|-1-----0-1-3------------|-------------------------|-------------5-5-5--|
|---6-----6-----5-----5---|---3---------3--(3)---1-|-3-----3-----5-----5-----|-5-----5-----5-5-5--|
|-----7-----7-----5-----5-|-----2--------------2---|---2-----2-----5-----5---|---5-----5----------|
|-------------------------|------------------------|-----3-----3-----5-----5-|-----5-----5--------|
|-------------------------|------------------------|-------------------------|--------------------|
|-------------------------|------------------------|-------------------------|--------------------|

BPM - 155
  H    H       H     H      E E E E E E E E   E  E E  E E  E E  E
|-9----8----|-12----11----|---9---9---8---8-|---12---12---11---11-|
|-----------|-------------|-----------------|---------------------|
|-----------|-------------|-----------------|---------------------|
|-----------|-------------|-----------------|---------------------|
|-----------|-------------|-----------------|---------------------|
|-----------|-------------|-----------------|---------------------|


  E E E E E E E E   E  E E  E E  E E  E   E E E E E E E E   E  E E  E  E   E E  E
|---9---9---8---8-|---12---12---11---11-|---9---9---8---8-|---12---12-----11---11-|
|-----------------|---------------------|-----------------|-----------------------|
|-----------------|---------------------|-----------------|-----------------------|3x
|-----------------|---------------------|-----------------|-----------------------|
|-----------------|---------------------|-----------------|-----------------------|
|-----------------|---------------------|-----------------|-----------------------|

Time signature - 2/4

  H
|------|
|------|
|------|
|------|
|------|
|------|

Time signature - 4/4

  Q  Q  Q  Q    Q  E E Q  Q    E E E E E S S E E   E E E E H
|----1-----1--|------1----4--|-6---8-9-8-9-8-6---|--------------|
|-------1-----|-2--4---4-----|---6-------------9-|-6-9---6------|
|-3-----------|--------------|-------------------|-----8---6----|
|-------------|--------------|-------------------|--------------|
|-------------|--------------|-------------------|--------------|
|-------------|--------------|-------------------|--------------|


  Q  Q  Q  Q    Q  E E Q  Q    E E E E E S S E E   W
|----1-----1--|------1----4--|-6---8-9-8-9-8-6---|-6----|
|-------1-----|-2--4---4-----|---6-------------9-|------|
|-3-----------|--------------|-------------------|------|
|-------------|--------------|-------------------|------|
|-------------|--------------|-------------------|------|
|-------------|--------------|-------------------|------|


  Q  Q  Q  Q    Q  E E Q  Q    E E E E E S S E E   E E E E H
|----1-----1--|------1----4--|-6---8-9-8-9-8-6---|--------------|
|-------1-----|-2--4---4-----|---6-------------9-|-6-9---6------|
|-3-----------|--------------|-------------------|-----8---6----|
|-------------|--------------|-------------------|--------------|
|-------------|--------------|-------------------|--------------|
|-------------|--------------|-------------------|--------------|


  Q  Q  Q  Q    Q  E E Q  Q    E E E E E S S E E   W
|----1-----1--|------1----4--|-6---8-9-8-9-8-6---|-6----*|
|-------1-----|-2--4---4-----|---6-------------9-|------*|
|-3-----------|--------------|-------------------|------*|
|-------------|--------------|-------------------|------*|
|-------------|--------------|-------------------|------*|
|-------------|--------------|-------------------|------*|




Guitar 2

Time signature - 5/4
BPM - 155

  Q.           Q       E   H          Q.           Q       E   H
|-----------------------------------|-----------------------------------|
|-----------------------------------|-----------------------------------|
|----------------------3------------|----------------------3------------|2x
|--------------3--------------------|--------------3-----------1--------|
|-1------------------------3--------|-1---------------------------------|
|-----------------------------------|-----------------------------------|


  Q.           Q       E   H          Q.           Q       E   H
|-----------------------------------|-----------------------------------|
|-----------------------------------|-----------------------------------|
|-----------------------------------|--------------------------3--------|
|----------------------4------------|----------------------4------------|
|--------------4-----------3--------|--------------4--------------------|
|-2---------------------------------|-2---------------------------------|


  Q.           Q       E   H          Q.           Q       E   H
|-----------------------------------|-----------------------------------|
|-----------------------------------|-----------------------------------|
|----------------------3------------|----------------------3------------|
|--------------3--------------------|--------------3-----------1--------|
|-1------------------------3--------|-1---------------------------------|
|-----------------------------------|-----------------------------------|

Time signature - 4/4
BPM - 158

  W            W            W                 W
|-----------|-------------|-----------------|----------------------|
|-----------|-------------|-----------------|----------------------|
|-----------|-------------|-----------------|----------------------|
|-----------|-------------|-----------------|----------------------|
|-----------|-------------|-----------------|----------------------|
|-----------|-------------|-----------------|----------------------|


  Q   Q   Q   Q     Q    Q    Q    Q      Q   Q   Q   Q     Q    Q     H
|-1-------0-------|-3--------------2----|-1-------0-------|-3---------11\---------|
|-----3-------2---|------5----4---------|-----3-------2---|------5----------------|
|-----------------|---------------------|-----------------|-----------------------|
|-----------------|---------------------|-----------------|-----------------------|
|-----------------|---------------------|-----------------|-----------------------|
|-----------------|---------------------|-----------------|-----------------------|


  H     H       H      H       H       H           W
|-------------|--------------|-------------------|--------------|
|-------------|--------------|-------------------|--------------|
|-------------|--------------|-------------------|--------------|4x
|-------------|--------1-----|-------------------|--------------|
|-------------|-1------------|-------------------|-1------------|
|-2-----4-----|--------------|-2-------4---------|--------------|

BPM - 151
  W                         W                         W                         W
|-------------------------|-------------------------|-------------------------|-------------------------|
|-------------------------|-------------------------|-------------------------|-------------------------|
|-------------------------|-------------------------|-------------------------|-------------------------|
|-------------------------|-------------------------|-0-----------------------|-0-----------------------|
|-1-----------------------|-1-----------------------|-------------------------|-------------------------|
|-------------------------|-------------------------|-------------------------|-------------------------|


  H           H             H           Q   Q        H           H             H           H
|-------------------------|------------------------|-------------------------|------------------|
|-------------------------|------------------------|-------------------------|------------------|
|-------------------------|------------------------|-------------------------|------------------|2x
|-------------------------|------------------------|-------------------------|------------------|
|-1-----------3-----------|-5-----------5---3------|-1-----------3-----------|-4-----------5----|
|-------------------------|------------------------|-------------------------|------------------|

BPM - 155
  W            W            W                 W
|-----------|-------------|-----------------|---------------------|
|-----------|-------------|-----------------|---------------------|
|-----------|-------------|-----------------|---------------------|
|-----------|-------------|-----------------|---------------------|
|-----------|-------------|-----------------|---------------------|
|-----------|-------------|-----------------|---------------------|


  W                 W                     W                 W
|-----------------|---------------------|-----------------|---------------------|
|-----------------|---------------------|-----------------|---------------------|
|-----------------|---------------------|-----------------|---------------------|
|-----------------|---------------------|-----------------|---------------------|
|-----------------|---------------------|-----------------|---------------------|
|-----------------|---------------------|-----------------|---------------------|


  Q   Q   Q   Q     Q    Q    Q    Q      Q   Q   Q   Q     Q    Q    H
|-1-------0-------|-3--------------2----|-1-------0-------|-3--------------------|
|-----3-------2---|------5----4---------|-----3-------2---|------5----4\---------|
|-----------------|---------------------|-----------------|----------------------|
|-----------------|---------------------|-----------------|----------------------|
|-----------------|---------------------|-----------------|----------------------|
|-----------------|---------------------|-----------------|----------------------|


  Q   Q   Q   Q     Q    Q    Q    Q      Q   Q   Q   Q     Q    Q     H
|-1-------0-------|-3--------------2----|-1-------0-------|-3---------11\---------|
|-----3-------2---|------5----4---------|-----3-------2---|------5----------------|
|-----------------|---------------------|-----------------|-----------------------|
|-----------------|---------------------|-----------------|-----------------------|
|-----------------|---------------------|-----------------|-----------------------|
|-----------------|---------------------|-----------------|-----------------------|

Time signature - 2/4

  H
|------|
|------|
|------|
|------|
|------|
|------|

Time signature - 4/4

  H     H       H      H       H       H           W
|-------------|--------------|-------------------|-------------*|
|-------------|--------------|-------------------|-------------*|
|-------------|--------------|-------------------|-------------*|4x
|-------------|--------1-----|-------------------|-------------*|
|-------------|-1------------|-------------------|-1-----------*|
|-2-----4-----|--------------|-2-------4---------|-------------*|

Repeat from the start.


This track is weird. I mean, it's an awesome track, one of the best boss themes
I've ever heard and reflects its character well, but just weird in how it's
structured. It changes time signature three times before the repeat. (And you
can imagine how much of a pain in the butt it was to tab into TuxGuitar first.
It goes over four files for Christ's sake!)

For this transcription in particular, I highly recommend having multiple guitars
playing. It just doesn't sound right with one guitar playing one part. Also, some
parts can get pretty fast, so practice is definitely required.

Legend:
W - whole note
H - half note
Q - quarter note
E - eighth note
S - sixteenth note
\ - slide
Login or Register to remove this ad.

1 comment on U.N. Owen Was Her?

"...one of the best boss

"...one of the best boss themes I've ever heard...."
XD I was just looking over this tab again and I couldn't help but laugh, because nowadays I consider this my absolute favourite piece of music of all time. A weird choice, I know, but I like being weird! :D