U.N. Owen Was Her? (Touhou 6: Embodiment of Scarlet Devil) Guitar Tab

Submitted: Mar 13, 2012 by Rook (Last updated: Oct 20, 2012)

4.8
Average: 4.8 (15 votes)
Download | Listen
Game: Touhou 6: Embodiment of Scarlet Devil
Composer(s): ZUN
Style: Arrangement, Fingerstyle
Series: Touhou

This song is also called Flandre's Theme

AutoScroll: Slow | Medium | Fast
                              un owen was her?!                                 


Fingerstyle!
      S S S S S S S S S S S S E.  E  S E   
E||---------------------------------------|
B||---3-----3-----3-----3-----2---2----2--|
G||*----4-----4-----4-----4---2---2----2--|
D||*------4-----4-----4-----4-2---2----2--|
A||---2-----------------------0---0----0--|
E||---------------------------------------|


  S S S S S S S S S S S S E.  E  S E     S S S S S S S S S S S S E.  E  S E   
--------------------------0---0----0--|--------------------------------------|
--3-----3-----3-----3-----2---2----2--|--3-----3-----3-----3-----2---2----2--|
----4-----4-----4-----4---1---1----1--|----4-----4-----4-----4---2---2----2--|
------4-----4-----4-----4-------------|------4-----4-----4-----4-2---2----2--|
--2-----------------------0---0----0--|--2-----------------------0---0----0--|
--------------------------------------|--------------------------------------|


  S S S S S S S S S S S S E.  E  S E       E  E  E  E  E  E  E  E   
--------------------------0---0----0---||--2-----------1-----------|
--3-----3-----3-----3-----2---2----2---||--------3-----------2-----|
----4-----4-----4-----4-------2-------*||--------------------------|
------4-----4-----4-----4-2--------2--*||--------------------------|
--2-----------------------0---0----0---||--2--2-----2--1--1-----1--|
---------------------------------------||--------------------------|


  E  E  E  E  E  E  E  E     E  E  E  E  E  E  E  E   
--4-----1-----0-----3-----|--2-----------1-----------|
--------------------------|--------3-----------2-----|
--------------------------|--------------------------|
--------------------------|--------------------------|
--4--4-----4--3--3-----3--|--2--2-----2--1--1-----1--|
--------------------------|--------------------------|


  E  E  E  E  E  E  E  E     E  E  E  E  E  E  E  E   
--4-----1-----0-----3-----|--2-----------1-----------|
--------------------------|--------3-----------2-----|
--------------------------|--------------------------|
--------------------------|--------------------------|
--4--4-----4--3--3-----3--|--2--2-----2--1--1-----1--|
--------------------------|--------------------------|


  E  E  E  E  E  E  E  E     E  E  E  E  E  E  E  E     E  E  E  E  H         
--4-----1-----0-----3-----|--2-----------1-----------|--4-----1-----0--------|
--------------------------|--------3-----------2-----|-----------------------|
--------------------------|--------------------------|-----------------------|
--------------------------|--------------------------|-----------------------|
--4--4-----4--3--3-----3--|--2--2-----2--1--1-----1--|--4--4-----4--3--------|
--------------------------|--------------------------|-----------------------|


  Q    Q    Q    Q       Q    E  E  Q    Q       E  E  E   E  E   S S E   E   
-------2---------2----|----------2-------5----|--7-----9--10--9--10-9-7------|
------------2---------|--3----5-----5---------|-----7--------------------10--|
--4-------------------|-----------------------|------------------------------|
----------------------|-----------------------|------------------------------|
------------0---------|--2--------------------|---------------0--------------|
--3-------------------|-----------------------|--3---------------------------|


  E   E  E  E  E  E  E  E     Q    Q    Q    Q       Q    E  E  Q    Q     
---------------------------|-------2---------2----|-------0--2-------5----|
--7--10--5--7--3-----3--2--|--0---------2---------|--3----------5---------|
------------------2--------|----------------------|-------------0---------|
--0------------0-----------|----------------------|-----------------------|
---------------------------|------------0---------|--2--------------------|
---------------------------|--3-------------------|-----------------------|


  E  E  E   E  E   S S E   E     E  E  E  E  Q    Q     
--7-----9--10--9--10-9-7------|--7-----------7----7----|
-----7--------------------10--|-----------7-------7----|
------------------------------|--------7----------7----|
------------------------------|-------------------9----|
---------------0--------------|-----9-------------9----|
--3---------------------------|--7----------------7----|


  E  E  E  E  E  E  E  E     Q    E  E  Q    Q     
--------2-----------2-----|-------0--2-------5----|
--0-----------2-----------|--3----------5---------|
--------------------------|-----------------------|
--------------------------|-----------------------|
-----------------0-----0--|--2----------0---------|
--3--3-----3--3-----------|-----------------------|


  E  E  E   E  E   S S E   E     E   E  E  E  E  E  E  E   
--7-----9--10--9--10-9-7------|---------------------------|
-----7--------------------10--|--7--10--5--7--3-----3--2--|
------------------------------|------------------2--------|
------------------------------|--0------------0-----------|
---------------0--------------|---------------------------|
--3---------------------------|---------------------------|


  E  E  E  E  E  E  E  E     Q    E  E  Q    Q     
--------2-----------2-----|-------0--2-------5----|
--0-----------2-----------|--3----------5---------|
--------------------------|-----------------------|
--------------------------|-----------------------|
-----------------0-----0--|--2----------0---------|
--3--3-----3--3-----------|-----------------------|


  E  E  E   E  E   S S E   E     E  E  E  E  H         
--7-----9--10--9--10-9-7------|--7-----------7--------|
-----7--------------------10--|-----------7-----------|
------------------------------|--------7--------------|
------------------------------|-----------------------|
---------------0--------------|-----9-----------------|
--3---------------------------|--7--------------------|


  E  E  E  E  E  E  E  E  E  E  E  E     E  E  E  E  E  E  E  E  E  E  E  E   
--7--------7--------7--------7--------|--7--------7--------7--------7--------|
-----7--------7--------7--------7-----|-----7--------7--------7--------7-----|
--------9--------9--------9--------9--|--------9--------9--------9--------9--|
--------------------------------------|--------------------------------------|
--------------------------------------|--------------------------------------|
--7-----------------------------------|--7-----------------------------------|


    E  E  E  E  E  E  E  E  E  E  E  E     E  E  E  E  E  E  E  E  E  E  E  E   
|---6--------6--------6--------6--------|--6--------6--------6--------6--------|
|------7--------7--------7--------7-----|-----7--------7--------7--------7-----|
|*--------8--------8--------8--------8--|--------8--------8--------8--------8--|
|*--------------------------------------|-----------------------------4--------|
|---6-----------------------------------|--6-----------------------------------|
|---------------------------------------|--------------------------------------|


  E  E  E  E  E  E  E  E  E  E  E  E     E  E  E  E  E  E  Q.     E.  T S S.  
--6--------6--------4--------4--------|--------------------------------------|
-----7--------7--------6--------6-----|--7--------6--7--9-----------------2--|
--------8--------8--------6--------6--|-----8--------------8------6-----3----|
--------------------------------------|--------8-----------------------------|
--------------------4-----------------|--6-----------------6------4----------|
--7-----------------------------------|--------------------------------------|


  E  E  E  E  E  E  E  E  E  E  E  E     E  E  E  E  E  E  Q    Q.     S. T    
--------------------------------------|-----------------4--6-----------------||
--4--------4--------6--------6--------|--6--------6--7-----------------------||
-----3--------3--------6--------6-----|-----7-------------------------------*||
--------4--------4--------6--------6--|--0-----6----------------------------*||
--2-----------------4-----------------|--------------------6-----------------||
--------------------------------------|--------------------------------------||


  E  E  E  E  E  E  Q.     Q.         E  E  E  E  E  E  E  E   E   E  E   E   
--------------------6------6------|--10-----------9-----------13-------------|
--6--------6--------7------7------|------------------------------------------|
-----7--------7-----8------8------|------------------------------------------|
--0-----6--------6--8------8------|------------------------------------------|
----------------------------------|------9-----9-----8-----8------11-----11--|
----------------------------------|---7-----7-----6-----6------9------9------|


   E  E  E  E  Q     E  E   E  E  E  E   
--12----------------10-----10-----9-----|
--------------------10-----10-----9-----|
------0-----0---------------------------|
----------------------------------------|
----------------------------------------|
---8-----8-----7--------7------6-----6--|


  Q     E  E   E  E   E  E   E  E   E  E   
--9----13-----13-----12-----12-----10-----|
--9----13-----13-----12-----12-----10-----|
------------------------------------------|
------------------------------------------|
------------------------------------------|
-----------9------8------8------7------7--|


   E  E  E  E  E  E   E  E   E  E   E  E   
--10-----9-----9-----13-----13-----12-----|
--10-----9-----9-----13-----13-----12-----|
------------------------------------------|
------------------------------------------|
------------------------------------------|
------6-----6-----9------9------8------8--|


   Q    E  E  E  E  E  E  E  E  E  E     E  E  E  E  E  E  E  E  E  E  E  E   
--12----2-----------1-----------4-----|--1-----0-----3-----2-----------1-----|
--12----------3-----------2-----------|--------------------------3-----------|
--------------------------------------|--------------------------------------|
--------------------------------------|--------------------------------------|
--------2--2-----2--1--1-----1--4--4--|-----4--3--3-----3--2--2-----2--1--1--|
--------------------------------------|--------------------------------------|


  E  E  E  E  E  E  E  E  E  E  E  E     E  E  E  E  E  E  E  E  E  E  Q     
--------4-----1-----0-----3-----2-----|--------1-----------4-----1-----0----|
--2-----------------------------------|--3-----------2----------------------|
--------------------------------------|-------------------------------------|
--------------------------------------|-------------------------------------|
-----1--4--4-----4--3--3-----3--2--2--|-----2--1--1-----1--4--4-----4--3----|
--------------------------------------|-------------------------------------|


  Q    Q    Q    Q       Q    E  E  Q    Q       E  E  E   E  E   S S E   E   
-------2---------2----|-------0--2-------5----|--7-----9--10--9--10-9-7------|
--0---------2---------|--3----------5---------|-----7--------------------10--|
----------------------|-----------------------|------------------------------|
----------------------|-----------------------|------------------------------|
------------0---------|--2--------------------|---------------0--------------|
--3-------------------|-----------------------|--3---------------------------|


  E   E  E  E  E  E  E  E     Q    Q    Q    Q       Q    E  E  Q    Q     
---------------------------|-------2---------2----|-------0--2-------5----|
--7--10--5--7--3-----3--2--|--0---------2---------|--3----------5---------|
------------------2--------|----------------------|-----------------------|
--0------------0-----------|----------------------|-----------------------|
---------------------------|------------0---------|--2----------0---------|
---------------------------|--3-------------------|-----------------------|


                                                   ^     
  E  E  E   E  E   S S E   E     E  E  E  E  E  E  Q     
--7-----9--10--9--10-9-7------|--7-----------7-----7----|
-----7--------------------10--|-----------7--------7----|
------------------------------|--------7-----------7----|
------------------------------|--------------------9----|
---------------0--------------|-----9--------------9----|
--3---------------------------|--3-----------------7----|


  Q    Q    Q    Q      
--L-------------------||
--L-------------------||
--L-------------------||
--L-------------------||
--L-------------------||
--L-------------------||




Duration Legend
---------------
W - whole
H - half
Q - quarter
E - 8th
S - 16th
T - 32nd
X - 64th
. - note dotted
|-n-|  - n-tuplets


Tablature Legend
----------------
L - tied note
x - dead note
g - grace note
(n) - ghost note
> - accentuded note
NH - natural harmonic
AH - artificial harmonic
TH - tapped harmonic
SH - semi harmonic
PH - pitch harmonic
h - hammer on
p - pull off
b - bend
br - bendRelease
pb - preBend
pbr - preBendRelease
brb - bendReleaseBend
\n/ - tremolo bar dip
\n - tremolo bar dive
-/n - tremolo bar Release up
/n\ - tremolo bar inverted dip
/n - tremolo bar return
-\n - tremolo bar Release down
S - shift slide
s - legato slide
/ -  slide into from below or out of upwards
\ -  slide into from above or out of downwards
~ - vibrato
W - wide vibrato
tr - trill
TP - tremolo picking
T - tapping
S - slap
P - pop
< - fade in
^ - brush up
v - brush down
Login or Register to remove this ad.

6 comments on U.N. Owen Was Her?

this is sick

5

this is sick

Awesome tab and surprisingly

5

Awesome tab and surprisingly easy too =D

nice!

reminds me how how i learned to dodge rain
:)

Lol

Lol

Nice work, cool song!

5

Nice work, cool song!

And with my vote, it made it

4

And with my vote, it made it into the top 50 highest rated tabs on the site.
You're welcome.

edit:I took a closer listen. Sorry, not worth my 5 star vote.