Login or Register to remove this ad.

Shanghai Alice of Meiji 17 (Intro) (Touhou 6: Embodiment of Scarlet Devil) Guitar Tab

Submitted: Jan 18, 2014 by Bessem

0
Download | Listen
Game: Touhou 6: Embodiment of Scarlet Devil
Composer(s): ZUN
Style: 2 or more instruments, Sweep picking, Transcription
Series: Touhou

This song is also called Shanghai Alice of Meiji 17

AutoScroll: Slow | Medium | Fast
well it's impossible (?) to play but, who know ? there are crazy people in the world

Piste 1
     Q       Q        Q       Q       Q       Q       Q       Q       Q     
E||-------|-------|--------|-------|-------|-------|-------|-------|-------|
B||-------|-------|--------|-------|-------|-------|-------|-------|-------|
G||-------|-------|--------|-------|-------|-------|-------|-------|-------|
D||--1----|--2----|--------|--1----|-------|-------|-------|-------|--1----|
A||--2----|--2----|---1----|--1----|--2----|--4----|--1----|--L----|--2----|
E||--4----|--4----|---2----|--2----|--4----|--4----|--3----|--L----|--4----|
B||-------|-------|--14----|-------|--5----|--5----|--4----|--L----|-------|


  Q        Q       Q       Q       Q       Q       Q       
-------|--------|-------|-------|-------|-------|--------||
-------|--------|-------|-------|-------|-------|--------||
-------|--------|-------|-------|-------|-------|--------||
--2----|--------|--1----|-------|-------|--1----|--------||
--2----|---1----|--1----|--2----|--5----|--1----|--L-----||
--4----|---2----|--2----|--4----|--4----|--3----|--L-----||
-------|--14----|-------|--5----|--5----|-------|--L-----||


Piste 2
      |-3-| |--3-|     |-3-| |--3-|    |-3-| |-3-|    |-3-| |--3-|  
      S S S S S  S     S S S S S  S    S S S S S S    S S S S S  S  
E||-----------7-11-|-----------7-12-|----------6-9-|----------6-11-|
B||---------9------|---------9------|--------7-----|--------7------|
G||-------8--------|-------9--------|------6-------|------8--------|
D||-----9----------|-----9----------|----8---------|----8----------|
A||--11------------|--11------------|--9-----------|--9------------|
E||----------------|----------------|--------------|---------------|


  |-3-| |-3-|    |-3-| |-3-|    |-3-| |-3-|     |-3-| |-3-|     |-3-| |--3-|  
  S S S S S S    S S S S S S    S S S S S S     S S S S S S     S S S S S  S  
----------4-7-|----------4-9-|----------3-6-|--11-6---------|-----------7-11-|
--------5-----|--------5-----|--------4-----|-------8-------|---------9------|
------4-------|------6-------|------3-------|---------8-----|-------8--------|
----6---------|----6---------|----5---------|-----------8-5-|-----9----------|
--7-----------|--7-----------|--6-----------|---------------|--11------------|
--------------|--------------|--------------|---------------|----------------|


   |-3-| |--3-|    |-3-| |-3-|    |-3-| |--3-|    |-3-| |-3-|    |-3-| |--3-|  
   S S S S S  S    S S S S S S    S S S S S  S    S S S S S S    S S S S S  S  
-----------7-12-|----------6-9-|----------6-11-|----------4-7-|----------6-10-|
---------9------|--------7-----|--------7------|--------5-----|--------5------|
-------9--------|------6-------|------8--------|------4-------|------7--------|
-----9----------|----8---------|----8----------|----6---------|----8----------|
--11------------|--9-----------|--9------------|--7-----------|--7------------|
----------------|--------------|---------------|--------------|---------------|


  |-3-| |-3-|     |-3-| |-3-|    
  S S S S S S     S S S S S S    
----------3-6-|--11-6----------||
--------4-----|-------8--------||
------3-------|---------8-----*||
----5---------|-----------8-5-*||
--6-----------|----------------||
--------------|----------------||
Login or Register to remove this ad.

3 comments on Shanghai Alice of Meiji 17 (Intro)

Track one, measures 3 and 11.

Track one, measures 3 and 11. Tehe

level Touhou xD

I said that it is impossible to play

A||---1----|

A||---1----|       A||---4----|
E||---2----|   =   E||---6----|
B||--14----|       B||---7----|

B 14 = A 4 = C#
E  2 = B 7 = F#
A  1 = E 6 = A#

?