Septette for the Dead Princess (Touhou 6: Embodiment of Scarlet Devil) Guitar Tab

Submitted: Dec 14, 2012 by ChelseaRare

5
Average: 5 (7 votes)
Download | Listen
Game: Touhou 6: Embodiment of Scarlet Devil
Composer(s): ZUN
Style: Arrangement, Fingerstyle
Series: Touhou

AutoScroll: Slow | Medium | Fast
Touhou 6: Embodiment of Scarlet Devil
Septette for the Dead Princess (Remilia Scarlet's's Theme)
Composed by ZUN
Arranged by Chelsea Intal
12/13/12

Drop D tuning (DADGBe)
120 BPM

     Q    E  E  Q    E  E     Q    E  E  Q    E  E     Q    E  E  Q    E  E   
E||------------------------|------------------------|------------------------|
B||-------------4----3-----|-------------4----3-----|-------------4----3-----|
G||-------0----------------|-------0----------------|-------0----------------|
D||---------------------3--|------------------0-----|------------------0--3--|
A||--3-------3-------4-----|--3-------3----------4--|--3-------3-------------|
D||------------------------|------------------------|------------------------|


  Q    E  Q    E  E   E     Q    E  E  Q    E  E     Q    E  E  Q    E  E   
-------------------------|------------------------|------------------------|
---------------4---------|------------------------|-------------4----3-----|
-------0-----------------|-------0-----8----7-----|-------0----------------|
------------------0h--1--|------------------------|---------------------3--|
--3-------3--------------|---------------------8--|--1-------1-------1-----|
-------------------------|--6-------6-------6-----|------------------------|


                           ^                                                
  Q    E  E  Q    E  E     H        E  E  E  E     E  E  E  E  E  E  E  E   
------------------------|-----------------------|-----------1--------------|
-------------4----3-----|--4--------L-----1--3--|--4-----1-----3--------4--|
-------0----------------|--0--------L--0--------|-----0--------------3-----|
---------------------3--|--1--------L-----------|-----------------3--------|
--3-------3-------3-----|--3--------L-----------|--3-----------1-----------|
------------------------|-----------------------|--------------------------|


  E  E  E  Q    E  E  E     E  E  E  E  E  E  E  E     E  E  E  Q    E  E  E   
-------------------------|-----------1-----------6--|-------------------6--8--|
-------------------------|--4-----1-----3-----------|--8-------------8--------|
--5--L-----5----0--5--7--|-----0-----------0--3-----|-----------5-------------|
--------5----------------|--------------------------|--------7----------------|
-----6-------------------|--3-----------1-----------|-----8-------------------|
--6----------------------|--------------------------|--7----------------------|


  E  E  E  E  E  E  E  E     E  E  E  E  E  E  E  E   
--------------------4--6--|--------------------------|
--6--6--6--------6--------|--4--4--4--------1--1--3--|
-----------5--------------|-----------3--0-----------|
--------------6-----------|--------------------------|
--------------------------|--------------------------|
--6-----------------------|--1-----------------------|


  E  E  E  E  E  E  E  E     E  E  E  E  Q    S S S S  
--------------------------|-------------------------3-|
-----------6--------------|-----------3--3----1-3-4---|
--8-----8-----7-----7--8--|--5-----5------------------|
-----6-----------8--------|-----5--------0------------|
--------------------------|--3------------------------|
--6-----------8-----------|---------------------------|


  Q    Q    E  S  S S S  S  S    Q    Q    Q    Q     
------------------------------|----------------------|
--4------------3h-4-3---------|----------------------|
----------------------3p-0h-1-|--2-------------------|
------------------------------|----------------------|
--3----3----3-------3---------|--3----3----3----3----|
------------------------------|----------------------|


  Q    S S  S S Q    S S  S S    Q    S S  S S Q    S S S S  
------------------------------|-----------------------------|
------------------------------|-----------------------------|
--------------0-------------1-|--------------2------------1-|
---------0h-1----------0h-1---|---------0h-1----------0-1---|
--3----3--------3----3--------|--3----3--------3----3-------|
------------------------------|-----------------------------|


  Q    S S  S S Q    S S S S    Q    S S  S S Q    S S S S  
-----------------------------|-----------------------------|
-----------------------------|-----------------------------|
--------------0------------1-|--------------2------------1-|
---------0h-1----------0-1---|---------0h-1----------0-1---|
--3----3--------3----3-------|--3----3--------3----3-------|
-----------------------------|-----------------------------|


  Q    Q    E  S  S S  S  S S    H        E  E  E  E   
------------------------------|-----------------------|
--4------------3p-1-----------|-----------------1--3--|
--------------------3p-1p-0---|--2-----------0--------|
----------------------------3-|-----------------------|
--3----3----3-------3---------|--3--------------------|
------------------------------|-----------------------|


  E  E  E  E  E  E  E  E     E  E  E  E  E  E  E  E   
-----------1--------------|--------------------------|
--4-----1-----3--------4--|--------------------------|
-----0--------------3-----|--5--------------0--5--7--|
-----------------3--------|--------6--8--L-----------|
--3-----3-----1-----1-----|-----6--------------------|
--------------------------|--6-----6-----6-----6-----|


  E  E  E  E  E  E  E  E     E  E  E  E  E  E  E  E   
-----------1-----------6--|--3--------3-----3--6--8--|
--4-----1-----3-----------|--------------------------|
-----0-----------0--3-----|--------2-----------------|
--------------------------|-----3--------------------|
--3-----3-----1-----1-----|--0-----0-----0-----0-----|
--------------------------|--------------------------|


  E  E  E  E  E  E  E  E     E  E  E  E  E  E  E  E   
--------------------4--6--|--------------------------|
--6-----6--------6--------|--4-----4--------1--1--3--|
-----------5--------------|-----------3--0-----------|
-----3--------6-----------|-----1--------------------|
--------------------------|--------------------------|
--3-----3-----3-----3-----|--1-----1-----1-----1-----|


  E  E  E  E  E  E  E  E     Q    Q    E  E  E  E     Q    E  E  Q    E  E   
-----------1--------------|------------------------|--3-------6--1-------3--|
--4-----------3-----------|------------3--4--4--6--|------------------------|
--------1-----------3--5--|--5---------------------|------------------------|
-----1-----------3--------|------------------------|------------------------|
--------------------------|------------1-----1-----|--3----3-----1----1-----|
--3-----3-----5-----5-----|--6----6----------------|------------------------|


  Q    Q    E  E  E  E      Q     E   E  E  E   E   E   
------------------------|-------------------8----------|
--4------------4--4--6--|---8--------11--------11------|
------------------------|--------------------------10--|
------------------------|------------------------------|
------------------------|------------------------------|
--6----6----6-----6-----|--10----10------8------8------|


  Q    Q    E  E  E  E     Q    Q    E  E  E  E     Q    Q    E  E  E  E   
------------------6--8--|------------------3--6--|------------------------|
--8------------8--------|--6----6-------6--------|--4----4-------1--1--3--|
------------------------|------------------------|------------------------|
------------------------|------------------------|------------------------|
--0----0----0-----0-----|------------------------|------------------------|
------------------------|--3----3----3-----3-----|--1----1----1-----1-----|


  Q    E  E  Q    E  E     Q    Q    Q    E  E     E  E  E  E  E.  S E  E   
----------1-------------|-----------------------|------------------2----1--|
--4----------3-------0--|-----------------------|--4--2--4--2--4-----------|
------------------------|--5---------8-------6--|--------------------------|
------------------------|-----------------8-----|--------------------------|
------------------------|-----------------------|--2-----2-----2-----2-----|
--3----3-----5----5-----|--6----6----8----------|--------------------------|


  E  E  E  E  E.  S E  E     E.  S E  E  E.  S E  E     Q    Q    Q    E  E   
------------------6----4--|--2---1-------------------|-----------------------|
--4-----4-----4-----------|-----------4--4---3-------|--------------------2--|
-----6-----6--------------|-----------------------3--|--3--------------3-----|
--------------------------|--0-----0-----0-----0-----|--1----1----1----1-----|
--4-----4-----4-----4-----|--------------------------|-----------------------|
--------------------------|--------------------------|-----------------------|


  E  E  E  E  E.  S E  E     E  E  E  E  E.  S E  E   
------------------2----1--|------------------6----4--|
--4--2--4--2--4-----------|--4-----4-----4-----------|
--------------------------|-----6-----6--------------|
--------------------------|--------------------------|
--2-----2-----2-----2-----|--4-----4-----4-----4-----|
--------------------------|--------------------------|


  E.  S E  E  E.  S E  E     Q    E  Q.     E  E     Q    E  E   
--2---1-------1---2----4--|--6-------6------6--6--|-------------|
-----------4--------------|-----------------------|----------3--|
--------------------------|-----------------------|-------0-----|
--0-----0-----0-----0-----|--0-------0------0--0--|-------0-----|
--------------------------|-----------------------|-------------|
--------------------------|-----------------------|-------------|


  Q    E  E  E.  S E  E     Q    Q    Q    E  E     Q    E  E  E.  S E  E   
-------------------------|-----------------------|-------------------------|
--1----------------------|--------------------3--|-----------------6-------|
--2-------3--2--------0--|--L--------------0-----|--5-------------------7--|
-----------------3-------|-----------------0-----|----------8--7-----------|
-------------------------|-----------------------|-------------------------|
--1----1-----1-----1-----|--1----1----1----3-----|--5----5-----5-----5-----|


  Q    Q    Q    E  E     Q    E  E  E.  S E  E     Q    Q    Q    E  E   
-----------------------|-------------------------|-----------------------|
--------------------3--|--1----------------------|-----------------------|
--L--------------0-----|--2-------3--2--------0--|--L--------------0--2--|
-----------------------|-----------------3-------|-----------------------|
-----------------------|-------------------------|-----------------------|
--5----5----5----5-----|--2----2-----2-----2-----|--2----2----2----2-----|


  E  E  E  E  Q    Q       Q    Q    Q    E  E     E  E  E  E  E  S S E  E   
------------------------|-----------------------|---------------------------|
------------------------|--3-----------------3--|--1------------------------|
--3--2-----0--L---------|--3--------------0-----|--------0--3--2---------0--|
--------3---------------|-----------------------|-----0-----------0-3-------|
------------------------|-----------------------|---------------------------|
--1-----1-----3----3----|--5----5----5----5-----|--1-----1-----1------1-----|


  Q    Q    Q    E  E     E  E  E  E  E  S S E  E     Q    Q    Q    E  E   
-----------------------|---------------------------|-----------------------|
--------------------3--|-------------------6-------|--------------------3--|
--L--------------0-----|--5---------------------7--|--L--------------0-----|
-----------------------|--------5--8--7------------|-----------------------|
-----------------------|-----8-----------8---------|-----------------------|
--1----1----1----3-----|--5-----5-----5------5-----|--5----5----5----5-----|


  E  E  E  E  E  S S E  E     Q    Q    Q    E  E     E  E  E  E  Q    Q     
---------------------------|-----------------------|------------------------|
--1------------------------|-----------------------|------------------------|
--------0--3--2---------0--|--L--------------0--2--|--3--2-----0--L----0----|
-----0-----------0-3-------|-----------------------|--------3---------------|
---------------------------|-----------------------|------------------------|
--2-----2-----2------2-----|--2----2----2----2-----|--1-----1-----3----3----|


  ^                  
  W                  
--3----------------||
--3----------------||
--3----------------||
--5----------------||
-------------------||
-------------------||




Duration Legend
---------------
W - whole
H - half
Q - quarter
E - 8th
S - 16th
T - 32nd
X - 64th
. - note dotted
|-n-|  - n-tuplets


Tablature Legend
----------------
L - tied note
x - dead note
g - grace note
(n) - ghost note
> - accentuded note
NH - natural harmonic
AH - artificial harmonic
TH - tapped harmonic
SH - semi harmonic
PH - pitch harmonic
h - hammer on
p - pull off
b - bend
br - bendRelease
pb - preBend
pbr - preBendRelease
brb - bendReleaseBend
\n/ - tremolo bar dip
\n - tremolo bar dive
-/n - tremolo bar Release up
/n\ - tremolo bar inverted dip
/n - tremolo bar return
-\n - tremolo bar Release down
S - shift slide
s - legato slide
/ -  slide into from below or out of upwards
\ -  slide into from above or out of downwards
~ - vibrato
W - wide vibrato
tr - trill
TP - tremolo picking
T - tapping
S - slap
P - pop
< - fade in
^ - brush up
v - brush down
Login or Register to remove this ad.