Lunar Clock ~ Luna Dial (Touhou 6: Embodiment of Scarlet Devil) Guitar Tab

Submitted: Nov 27, 2012 by ChelseaRare

5
Average: 5 (3 votes)
Download | Listen
Game: Touhou 6: Embodiment of Scarlet Devil
Composer(s): ZUN
Style: Arrangement, Fingerstyle
Series: Touhou

AutoScroll: Slow | Medium | Fast
Touhou 6: Embodiment of Scarlet Devil
Lunar Clock ~ Luna Dial (Sakuya Izayoi's Theme)
Composed by ZUN
Arranged by Chelsea Intal
11-20-12

Tuning: CGDGBE (Capo 4)
Lower the 6th string by 2 whole steps
Lower the 5th string by 1 whole step

The capo is really just there to make certain things easier to reach. It's not really necessary though.

100 BPM

*The notes in () are optional.

 
     S  E.  S  S S S E  E.  S E     Q.     E  E  E  E  E   
E||------------------------------|---------0--2--3-----0--|
B||------------------------------|------------------7-----|
G||------------------------------|------------------------|
D||--2p-1---2h-4---2----1---2----|------------------------|
G||--------------1------------1--|---------1--2--4--6--4--|
C||--1---------------1-----------|--1---------------------|


  S E.  E  E  E.  S E  E     Q.     E  E  E  E  E     E  S S E  E  E  E  E  E   
--------------------------|---------0--2--3-----0--|-------0-0-----------------|
--------------------------|------------------7-----|------------4--2--0--------|
--------------1-----------|------------------------|--1----1-1-----1-----1-----|
--2-1---L--2------2-2--1--|------------------------|--1---------4-----2--2--2--|
-----------1-----------1--|---------1--2--4--6--4--|-----1------1-----1-----1--|
--1-----------1-----------|--1---------------------|--1------1-----1-----1-----|


  E  E  E  S S E  E  E  E     S S S S S S S S S S S S S S S S  
---------------2--3-----0--|------0-----0-2-4---0---0---0---0-|
-------------2-------7-----|----4---2-4-------4---2---0-------|
---------------------------|--1---------------------------1---|
---------------------------|----------------------------------|
-----1-----1---2--4--6--4--|------1-------1-------1-------1---|
--1-----1------------------|--1-------1-------1-------1-------|


  S S S S S S S S E  E  E  E     Q    E  E  E  S S S S S S  
----0---0---0---0-2--3-----0--|-------2----------0-0-2-0---|
------------------------7-----|--2-------2-----2---------4-|
--1---1---1---1---------------|--1----1--1-----------------|
------------------------------|----------------------------|
------1-------1---2--4--6--4--|--------------------1-------|
--1-------1-------------------|--1----1--1-----------------|


  Q    E  E  E  S S S S S S    Q    E  E  E  S S S S S S  
-------2----------0-0-2-0---|-------2----------0-0-2-0---|
--2-------2-----2---------4-|--2-------2-----2---------4-|
--1----1--1-----------------|--1----1--1-----------------|
----------------------------|----------------------------|
--------------------1-------|----------------1-----------|
--1----1--1-----------------|--1----1--1-------------3---|


  Q    E  E  E  S S S S S S    E  E  E  E  E  E     E  E  E  E  E  S S  
-------2----------0-0-2-0---|--------------------|---------------------|
--2-------2-----2---------4-|--0--0-----0--------|-----0-----0-------0-|
--1----1--1-----------------|--------2--------0--|--------2--------0---|
----------------------------|--2-----------4-----|--2-----------4------|
----------------1-----------|--------------------|---------------------|
--1----1--1-------------3---|--4--------4--4-----|--4--4-----4-----4---|


  E  E  E  E  E  E     E  S S E  E  E  S S    E  E  E  E  E  S S  
--0-----------------|----------------------|--0------------------|
-----0-----3--------|--0--0------0-------0-|-----0-----0-------0-|
--0-----2--4-----0--|---------2--------0---|--0-----2--------0---|
--------------4-----|--2------------4------|--------------4------|
--------------------|----------------------|---------------------|
--0-----0--2-----2--|--4----4----4--4------|--0--------0--0------|


  E  E  E  E  E  S S    E  E  E  E  E  S S    E  E  E  E  E  S S  
---------------------|---------------------|--3--------5---------|
-----0-----0-------0-|-----0-----0-------0-|-----0-----0-------0-|
--------2--------0---|--------2--------0---|--0-----2--------0---|
--2-----------4------|--2-----------4------|--------------4------|
---------------------|---------------------|---------------------|
--L--0-----0-----0---|--0-----0--2-----2---|--0-----0--2-----2---|


  E  E  E  E  E  E     E  E  E  E  E  S S    E  E  E  E  S S E   
--7-----------------|---------------------|--0-------------2----|
-----0-----0--------|-----0-----0-------0-|-----0-----3---------|
-----------------0--|--------2--------0---|--0-----2--4------0--|
--------7-----4-----|--2-----------4------|--------------4------|
--------------------|---------------------|---------------------|
--4--4-----4--4-----|--4-----4-----4--4---|--0-----0--2------2--|


  |--3--|  |--3--|                                                      
  E  E  E  E  E  E  E  S S    E  E  E  E  E  S S    E  E  E  E  E  S S  
-----0---------------------|--0------------------|---------------------|
-----------3-----0-------0-|-----0-----0-------0-|--L--0-----0-------0-|
--0--------------------0---|--0-----2--------0---|--------2--------0---|
--------4-----2-----4------|--------------4------|--2-----------4------|
---------------------------|---------------------|---------------------|
--4--------4--------4--4---|--0--0-----0--0------|--0-----0-----0--0---|


  E  E  E  E  E  S S    E  E  E  E  E  S S  
--0--------2---------|--3--------5---------|
-----0-----0-------0-|-----0-----0-------0-|
--0-----2--------0---|--0-----2--------0---|
--------------4------|--------------4------|
---------------------|---------------------|
--0-----0--2-----2---|--0-----0--2-----2---|


    E   E   E   E   E   S  S S S  E      E   E   E   E   E   S  S E   E    
|-------------------------------------|-----------------------------------|
|-----------------------0------0------|------4-------4-------0--4---------|
|*------8---6---8----------8-6--------|----------6-------3----------------|
|*--6---------------8-------------8---|--6------------------------4---6---|
|------(8)-----(8)-----(8)-------(8)--|-----(6)-----(6)-----(6)------(6)--|
|---8-------8-------8--------8--------|--6-------6-------6--------6-------|


  E   E   E   E   E   S  S S S  S  S    E   E   E   E   E   S  S S S  E    4x
--------------------------------0--2-|-------------------------------------||
------4---2---4-------0--4-2-4-------|----------------------0------0-------||
--1---------------3------------------|------8---6---8----------8-6--------*||
-------------------------------------|--6---------------8-------------8---*||
-----(4)-----(4)-----(4)-------(4)---|-----(6)-----(6)-----(6)-------(6)---||
--4-------4-------4--------4---------|--6-------6-------6--------6---------||


  E   E   E   E   E   S  S S S  E      E   E   E   E   E   S  S E   E    
------------------------------------|-----------------------------------|
------------------------------------|------1-------1----------1---------|
------5---3---5---0------5-3----0---|----------3-------0---1------------|
--3-------------------6------6------|--3------------------------1---3---|
-----(5)-----(5)-----(5)-------(5)--|-----(3)-----(3)-----(3)------(3)--|
--5-------5-------5--------5--------|--3-------3-------3--------3-------|


  E   E   E   E   E   S  S S S  S  S    E   E   E   E   E   S  S S S  E    
-------------------------------------|------------------------------------|
------1-------1----------1---1--2--4-|------1-------1----------1----------|
----------3-------0---1----3---------|----------3-------0---1----3-1--0---|
--3----------------------------------|--3---------------------------------|
-----(1)-----(1)-----(1)-------(1)---|-----(3)-----(3)-----(3)-------(3)--|
--1-------1-------1--------1---------|--3-------3-------3--------3--------|


  E   E   E   E   E   S  S S S  E      E   E   E   E   E   S  S E   E    
------------------------------------|-----------------------------------|
------------------------------------|------1-------1----------1---------|
------5---3---5---0------5-3----0---|----------3-------0---1------------|
--3-------------------6------6------|--3------------------------1---3---|
-----(5)-----(5)-----(5)-------(5)--|-----(3)-----(3)-----(3)------(3)--|
--5-------5-------5--------5--------|--3-------3-------3--------3-------|


  E   E   E   E   E   S  S S S  S  S    E   E   E   E   E   S  S S S  E     
-------------------------------------|------------------------------------||
------1-------1----------1---1--2--4-|------1-------1----------1----------||
----------3-------0---1----3---------|----------3-------0---1----3-1--0---||
--3----------------------------------|--3---------------------------------||
-----(1)-----(1)-----(1)-------(1)---|-----(3)-----(3)-----(3)-------(3)--||
--1-------1-------1--------1---------|--3-------3-------3--------3--------||




Duration Legend
---------------
W - whole
H - half
Q - quarter
E - 8th
S - 16th
T - 32nd
X - 64th
. - note dotted
|-n-|  - n-tuplets


Tablature Legend
----------------
L - tied note
x - dead note
g - grace note
(n) - ghost note
> - accentuded note
NH - natural harmonic
AH - artificial harmonic
TH - tapped harmonic
SH - semi harmonic
PH - pitch harmonic
h - hammer on
p - pull off
b - bend
br - bendRelease
pb - preBend
pbr - preBendRelease
brb - bendReleaseBend
\n/ - tremolo bar dip
\n - tremolo bar dive
-/n - tremolo bar Release up
/n\ - tremolo bar inverted dip
/n - tremolo bar return
-\n - tremolo bar Release down
S - shift slide
s - legato slide
/ -  slide into from below or out of upwards
\ -  slide into from above or out of downwards
~ - vibrato
W - wide vibrato
tr - trill
TP - tremolo picking
T - tapping
S - slap
P - pop
< - fade in
^ - brush up
v - brush down
Login or Register to remove this ad.

2 comments on Lunar Clock ~ Luna Dial

solid as a rock

5

solid as a rock

Love this tab!

Love this tab!