Locked Girl ~ The Girl's Secret Room (Touhou 6: Embodiment of Scarlet Devil) Guitar Tab

Submitted: May 24, 2013 by TraceTheKriken

0
Download | Listen
Game: Touhou 6: Embodiment of Scarlet Devil
Composer(s): ZUN
Style: Transcription
Series: Touhou

This song is also called Patchouli's Theme

AutoScroll: Slow | Medium | Fast
Soundtrack: Locked Girl ~ The Girl's Secret Room
Composer: ZUN
Game: Touhou Koumakyou ~ Embodiment of Scarlet Devil
Tabber: TraceTheKriken
Date: 24th May 2013

Note: If you want exact tune with the OST you have to drop down the tuning approximately 0.3 semitones

Tempo: 147 BPM

e||------5-7-------|8-------10------|12--------------|--12--1210------|
B||5-------------5-|----------------|----------------|----10----12----|
G||----------------|------9---------|----------------|------------12--|
D||----------------|----------------|----------------|----------------|
A||----------------|----------------|----------------|----------------|
E||----------------|----------------|----------------|----------------|

e||------8-7-------|----------------|----------------|----------------|
B||10------------8-|------10--------|----------------|9-----000--1--3-|
G||----------------|9---------1210--|9---------------|----------------|
D||----------------|----------------|----------------|----------------|
A||----------------|----------------|----------------|----------------|
E||----------------|----------------|----------------|----------------|

Tempo: 151 BPM

e||------5-7-------|8-------10------|12--------------|--12--1210------|
B||5-------------5-|----------------|----------------|----10----12----|
G||----------------|------9---------|----------------|------------12--|
D||----------------|----------------|----------------|----------------|
A||----------------|----------------|----------------|----------------|
E||----------------|----------------|----------------|----------------|

e||------8-7-------|----------------|----------------|----------------|
B||10------------8-|------10--------|----------------|9---------------|
G||----------------|9---------1210--|9---------------|----------------|
D||----------------|----------------|----------------|----------------|
A||----------------|----------------|----------------|----------------|
E||----------------|----------------|----------------|----------------|

Tempo: 149 BPM

e||----------------|----------------|----------------|----------------|
B||3-------4-------|6-------4-------|3-------4-------|6-------4-------|
G||----------------|----------------|----------------|----------------|
D||------5-5-------|------5-5-------|------5-5-------|------5-5-------|
A||----------------|----------------|----------------|----------------|
E||----------------|----------------|----------------|----------------|

Tempo: 152 BPM

e||----------------|----------------|----------------|----------------|
B||3-------4-------|6-------4-------|3-------4-------|6-------4---431-|
G||----------------|----------------|----------------|----------------|
D||------5-5-------|------5-5-------|------5-5-------|------5-5------0|
A||----------------|----------------|----------------|----------------|
E||----------------|----------------|----------------|----------------|

e||----------------|----------------|----------------|----------------|
B||4---4---3--3--4-|L-4-4-4-3--3--4-|L-4-4-4-3--3--6-|L-4-4---3--3--4-|
G||5---5---4--4--5-|L-5-5-5-4--4--5-|L-5-5-5-4--4--7-|L-5-5---4--4--5-|
D||----------------|----------------|----------------|----------------|
A||----------------|----------------|----------------|----------------|
E||----------------|----------------|----------------|----------------|

e||----------------|----------------|----------------|----------------|
B||L---4---3--3--4-|L-4-4-4-3--3--4-|L-4-4-4-3--3--6-|L-4-6-8-3--4--6-|
G||L---5---4--4--5-|L-5-5-5-4--4--5-|L-5-5-5-4--4--7-|L-5-7-8-4--5--7-|
D||----------------|----------------|----------------|----------------|
A||----------------|----------------|----------------|----------------|
E||----------------|----------------|----------------|----------------|

e||8---8---7--7--8-|L-8-8-8-7--7--8-|L-8-8-8-7--7--10|L-8-8---7--7--8-|
B||----------------|----------------|----------------|----------------|
G||8---8---7--7--8-|L-8-8-8-7--7--8-|L-8-8-8-7--7--10|L-8-8---7--7--8-|
D||----------------|----------------|----------------|----------------|
A||----------------|----------------|----------------|----------------|
E||----------------|----------------|----------------|----------------|

e||L---8---7--7--8-|L-8-8-8-7--7--8-|L-8-8-8-7--7--10|L-7-8-107--7--8-|
B||----------------|----------------|----------------|----------------|
G||L---8---7--7--8-|L-8-8-8-7--7--8-|L-8-8-8-7--7--10|L-7-8-107--7--8-|
D||----------------|----------------|----------------|----------------|
A||----------------|----------------|----------------|----------------|
E||----------------|----------------|----------------|----------------|

e||------5-7-------|8-------10------|12--------------|--12--1210------|
B||5-------------5-|----------------|----------------|----10----12----|
G||----------------|------9---------|----------------|------------12--|
D||----------------|----------------|----------------|----------------|
A||----------------|----------------|----------------|----------------|
E||----------------|----------------|----------------|----------------|

e||------8-7-------|----------------|----------------|----------------|
B||10------------8-|------10--------|----------------|9-----000--1--3-|
G||----------------|9---------1210--|9---------------|----------------|
D||----------------|----------------|----------------|----------------|
A||----------------|----------------|----------------|----------------|
E||----------------|----------------|----------------|----------------|

e||------5-7-------|8-------10------|12--------------|--12--1210------|
B||5-------------5-|----------------|----------------|----10----12----|
G||----------------|------9---------|----------------|------------12--|
D||----------------|----------------|----------------|----------------|
A||----------------|----------------|----------------|----------------|
E||----------------|----------------|----------------|----------------|

e||------8-7-------|----------------|----------------|----------------|
B||10------------8-|------10--------|----------------|9---------------|
G||----------------|9---------1210--|9---------------|----------------|
D||----------------|----------------|----------------|----------------|
A||----------------|----------------|----------------|----------------|
E||----------------|----------------|----------------|----------------|

e||------6-8-------|9-------11------|13--------------|--13--1311------|
B||6-------------6-|----------------|----------------|----11----13----|
G||----------------|------10--------|----------------|------------13--|
D||----------------|----------------|----------------|----------------|
A||----------------|----------------|----------------|----------------|
E||----------------|----------------|----------------|----------------|

e||------9-8-------|----------------|----------------|----------------|
B||11------------9-|------11--------|----------------|10--------------|
G||----------------|10--------1311--|10--------------|----------------|
D||----------------|----------------|----------------|------555--6--8-|
A||----------------|----------------|----------------|----------------|
E||----------------|----------------|----------------|----------------|

e||------6-8-------|9-------11------|13--------------|--13--1311------|
B||6-------------6-|----------------|----------------|----11----13----|
G||----------------|------10--------|----------------|------------13--|
D||----------------|----------------|----------------|----------------|
A||----------------|----------------|----------------|----------------|
E||----------------|----------------|----------------|----------------|

e||------9-8-------|----------------|----------------|----------------|
B||11------------9-|------11--------|----------------|10--------------|
G||----------------|10--------1311--|10--------------|----------------|
D||----------------|----------------|----------------|----------------|
A||----------------|----------------|----------------|----------------|
E||----------------|----------------|----------------|----------------|

Return to where tempo changes to 149 BPM if you want to repeat the soundtack
Login or Register to remove this ad.