Crimson Belvedere ~ Eastern Dream (Touhou 6: Embodiment of Scarlet Devil) Bass/Guitar Tab

Submitted: Mar 23, 2012 by Jacob31593 (Last updated: Jun 01, 2012)

5
Average: 5 (2 votes)
Download | Listen
Game: Touhou 6: Embodiment of Scarlet Devil
Composer(s): ZUN
Style: 2 or more instruments, Alternate picking, Arrangement, Sweep picking, Transcription
Series: Touhou

This song is also called Credits

AutoScroll: Slow | Medium | Fast

Crimson Belvedere ~ Eastern Dream... from Touhou 6
Composed by ZUN
Tabbed by Jacob31593
March 23rd 2012

I transposed everything down by 50 cents because every song on the Touhou 6 OST is out of tune.
130BPM

Lead

      Q     Q     H            Q     Q    H           Q    Q    H           W                   Q     Q     H         
E||------------------------|-----------------------|---------------------|-------------------|-----------------------|
B||---7----10----14--------|--12----10----9--------|--7----5----7--------|--L----------------|--7----10----14--------|
G||*-----------------------|-----------------------|---------------------|-------------------|-----------------------|
D||*--4-----7----11--------|---9-----7----6--------|--4----2----4--------|--L----------------|--4-----7----11--------|
A||------------------------|-----------------------|---------------------|-------------------|-----------------------|
E||------------------------|-----------------------|---------------------|-------------------|-----------------------|


   Q     Q    H            H         H           W                    Q     Q     H            Q     Q     H         
-----------------------|----------------------|-------------------|------------------------|------------------------|
--12----10----9--------|--17--------14--------|--L----------------|--14----17----19--------|--17----14----12--------|
-----------------------|----------------------|-------------------|------------------------|------------------------|
---9-----7----6--------|--14--------11--------|--L----------------|--11----14----16--------|--14----11-----9--------|
-----------------------|----------------------|-------------------|------------------------|------------------------|
-----------------------|----------------------|-------------------|------------------------|------------------------|


  Q     Q     H            Q     Q    H           Q    Q     H            Q     Q    Q    Q       Q    Q    Q    Q     
-----------------------|-----------------------|----------------------|------------------------|----------------------|
--L----17----14--------|--12----10----7--------|--7----9----10--------|--10----12----9----7----|--5----7----L----L----|
-----------------------|-----------------------|----------------------|------------------------|----------------------|
--L----14----11--------|---9-----7----4--------|--4----6-----7--------|---7-----9----6----4----|--2----4----L----L----|
-----------------------|-----------------------|----------------------|------------------------|----------------------|
-----------------------|-----------------------|----------------------|------------------------|----------------------|


  Q    Q    Q    Q       Q    Q               Q    Q.      E   E   E      Q     Q    E.  E.   E   
----------------------|------------|-------|--------------------------|--------------------------|
--L----L----L----L----|--L----L----|-------|--------------15--14--10--|------------------9---10--|
----------------------|------------|-------|--------------------------|--11----11----9-----------|
--L----L----L----L----|--L----L----|-------|--------------------------|--------------------------|
----------------------|------------|-------|--------------------------|--------------------------|
----------------------|------------|-------|--------------------------|--------------------------|


  Q    Q    E   E   E   E      Q     Q    E.   E.   E     Q    E   Q     E   E   E      Q     Q    E.  E.   E   
---------------------------|---------------------------|----------------------------|--------------------------|
--L----L-------15--14--10--|------------------12---10--|--L----L--14----15--14--10--|------------------9---10--|
---------------------------|--11----11----9------------|----------------------------|--11----11----9-----------|
---------------------------|---------------------------|----------------------------|--------------------------|
---------------------------|---------------------------|----------------------------|--------------------------|
---------------------------|---------------------------|----------------------------|--------------------------|


  Q     E   Q     E   E   E      E.   E.   E   E.   E.   E     E  E  E  E  E   E  E  E      Q     Q    E.  E.   E   
-------------------------12--|--14---17---16--14---12---14--|--L--L--L--L--L~--L--L--L--|--------------------------|
--L-----L--10----12--14------|------------------------------|---------------------------|------------------9---10--|
-----------------------------|------------------------------|---------------------------|--11----11----9-----------|
-----------------------------|------------------------------|---------------------------|--------------------------|
-----------------------------|------------------------------|---------------------------|--------------------------|
-----------------------------|------------------------------|---------------------------|--------------------------|


  Q    Q    E   E   E   E      Q     Q    E.   E.   E     Q    E   Q     E   E   E      Q     Q    E.  E.   E   
---------------------------|---------------------------|----------------------------|--------------------------|
--L----L-------15--14--10--|------------------12---10--|--L----L--14----15--14--10--|------------------9---10--|
---------------------------|--11----11----9------------|----------------------------|--11----11----9-----------|
---------------------------|---------------------------|----------------------------|--------------------------|
---------------------------|---------------------------|----------------------------|--------------------------|
---------------------------|---------------------------|----------------------------|--------------------------|


  Q     E   Q     E   E   E      E.   E.   E   E.   E.   E     E  E  E  E  E   E  E  E      Q     Q    E.  E.   E   
-------------------------12--|--14---17---16--14---12---14--|--L--L--L--L--L~--L--L--L--|--------------------------|
--L-----L--10----12--14------|------------------------------|---------------------------|------------------9---10--|
-----------------------------|------------------------------|---------------------------|--11----11----9-----------|
-----------------------------|------------------------------|---------------------------|--------------------------|
-----------------------------|------------------------------|---------------------------|--------------------------|
-----------------------------|------------------------------|---------------------------|--------------------------|


  Q    Q    E   E   E   E      Q     Q    E.   E.   E     Q    E   Q     E   E   E      Q     Q    E.  E.   E   
---------------------------|---------------------------|----------------------------|--------------------------|
--L----L-------15--14--10--|------------------12---10--|--L----L--14----15--14--10--|------------------9---10--|
---------------------------|--11----11----9------------|----------------------------|--11----11----9-----------|
---------------------------|---------------------------|----------------------------|--------------------------|
---------------------------|---------------------------|----------------------------|--------------------------|
---------------------------|---------------------------|----------------------------|--------------------------|


  Q     E   Q     E   E   E      E.   E.   E   E.   E.   E     E  E  E  E  E   E  E  E      Q     Q    E.  E.   E   
-------------------------12--|--14---17---16--14---12---14--|--L--L--L--L--L~--L--L--L--|--------------------------|
--L-----L--10----12--14------|------------------------------|---------------------------|------------------9---10--|
-----------------------------|------------------------------|---------------------------|--11----11----9-----------|
-----------------------------|------------------------------|---------------------------|--------------------------|
-----------------------------|------------------------------|---------------------------|--------------------------|
-----------------------------|------------------------------|---------------------------|--------------------------|


  Q    Q    E   E   E   E      Q     Q    E.   E.   E     Q    E   Q     E   E   E      Q     Q    E.  E.   E   
---------------------------|---------------------------|----------------------------|--------------------------|
--L----L-------15--14--10--|------------------12---10--|--L----L--14----15--14--10--|------------------9---10--|
---------------------------|--11----11----9------------|----------------------------|--11----11----9-----------|
---------------------------|---------------------------|----------------------------|--------------------------|
---------------------------|---------------------------|----------------------------|--------------------------|
---------------------------|---------------------------|----------------------------|--------------------------|


  Q     E   Q     E   E   E      E.   E.   E   E.   E.   E     E  E  E  E  E   E  E  E                           3x
-------------------------12--|--14---17---16--14---12---14--|--L--L--L--L--L~--L--L--L--|-----|-----|-----|------||
--L-----L--10----12--14------|------------------------------|---------------------------|-----|-----|-----|------||
-----------------------------|------------------------------|---------------------------|-----|-----|-----|-----*||
-----------------------------|------------------------------|---------------------------|-----|-----|-----|-----*||
-----------------------------|------------------------------|---------------------------|-----|-----|-----|------||
-----------------------------|------------------------------|---------------------------|-----|-----|-----|------||


Some Vibrato Stuff and then Lead 2

      Q    Q    H           Q     Q    Q    Q        Q    Q    Q    Q        Q    Q    Q    Q     
E||----------------------|------------------------|-----------------------|----------------------|
B||----------------------|------------------------|-----------------------|----------------------|
G||*---------------------|------------------------|-----------------------|----------------------|
D||*--4---------4--------|--L~----L----6----L~----|--L----L----7----L~----|--L----L----L----L----|
A||----------------------|------------------------|-----------------------|----------------------|
E||----------------------|------------------------|-----------------------|----------------------|


  Q    Q    Q    Q        Q    Q    Q    Q        Q    Q    Q    Q        Q    Q    Q    Q       Q    Q    Q    Q      
-----------------------|-----------------------|-----------------------|----------------------|-----------------------|
-----------------------|-----------------------|-----------------------|----------------------|-----------------------|
-----------------------|-----------------------|-----------------------|----------------------|-----------------------|
--7----L----4----L~----|--L----L----6----L~----|--L----L----7----L~----|--L----L----L----L----|--7----L----7----L~----|
-----------------------|-----------------------|-----------------------|----------------------|-----------------------|
-----------------------|-----------------------|-----------------------|----------------------|-----------------------|


  Q    Q    Q    Q        Q    Q    Q    Q        Q    Q    Q    Q        Q    Q    Q    Q        Q    Q    Q    Q      
-----------------------|-----------------------|-----------------------|-----------------------|-----------------------|
-----------------------|-----------------------|-----------------------|-----------------------|-----------------------|
------------4----L~----|--L----L----6----L~----|--L----L----4----L~----|--L----L---------------|-----------------------|
--L----L---------------|-----------------------|-----------------------|------------7----L~----|--L----L----6----L~----|
-----------------------|-----------------------|-----------------------|-----------------------|-----------------------|
-----------------------|-----------------------|-----------------------|-----------------------|-----------------------|


  Q    Q    Q     Q       Q    Q    Q    Q       Q    Q               Q    Q.     E  E  E     Q    Q    E.  E.  E   
-----------------------|----------------------|------------|-------|-----------------------|-----------------------|
-----------------------|----------------------|------------|-------|-----------------------|-----------------------|
-----------------------|----------------------|------------|-------|--------------7--6-----|-----------------------|
--L----7----L~----L----|--L----L----L----L----|--L----L----|-------|--------------------7--|----------------6---7--|
-----------------------|----------------------|------------|-------|-----------------------|--9----9----7----------|
-----------------------|----------------------|------------|-------|-----------------------|-----------------------|


  Q    Q    E  E  E  E     Q    Q    E.  E.  E     Q    E  Q    E  E  E     Q    Q    E.  E.  E   
------------------------|-----------------------|------------------------|-----------------------|
------------------------|-----------------------|------------------------|-----------------------|
---------------7--6-----|-----------------------|----------6----7--6-----|-----------------------|
--L----L-------------7--|----------------9---7--|--L----L-------------7--|----------------6---7--|
------------------------|--9----9----7----------|------------------------|--9----9----7----------|
------------------------|-----------------------|------------------------|-----------------------|


  Q    E  Q    E  E  E     E.   E.  E  E.  E.  E     E  E  E  E  E   E  E  E     Q    Q    E.  E.  E   
------------------------|-------------------------|---------------------------|-----------------------|
------------------------|--7---10---9--7-------7--|--L--L--L--L--L~--L--L--L--|-----------------------|
------------------6--9--|------------------9------|---------------------------|-----------------------|
--L----L--7----9--------|-------------------------|---------------------------|----------------6---7--|
------------------------|-------------------------|---------------------------|--9----9----7----------|
------------------------|-------------------------|---------------------------|-----------------------|


  Q    Q    E  E  E  E     Q    Q    E.  E.  E     Q    E  Q    E  E  E     Q    Q    E.  E.  E   
------------------------|-----------------------|------------------------|-----------------------|
------------------------|-----------------------|------------------------|-----------------------|
---------------7--6-----|-----------------------|----------6----7--6-----|-----------------------|
--L----L-------------7--|----------------9---7--|--L----L-------------7--|----------------6---7--|
------------------------|--9----9----7----------|------------------------|--9----9----7----------|
------------------------|-----------------------|------------------------|-----------------------|


  Q    E  Q    E  E  E     E.   E.  E  E.  E.  E     E  E  E  E  E   E  E  E     Q    Q    E.  E.  E   
------------------------|-------------------------|---------------------------|-----------------------|
------------------------|--7---10---9--7-------7--|--L--L--L--L--L~--L--L--L--|-----------------------|
------------------6--9--|------------------9------|---------------------------|-----------------------|
--L----L--7----9--------|-------------------------|---------------------------|----------------6---7--|
------------------------|-------------------------|---------------------------|--9----9----7----------|
------------------------|-------------------------|---------------------------|-----------------------|


  Q    Q    E  E  E  E     Q    Q    E.  E.  E     Q    E  Q    E  E  E     Q    Q    E.  E.  E   
------------------------|-----------------------|------------------------|-----------------------|
------------------------|-----------------------|------------------------|-----------------------|
---------------7--6-----|-----------------------|----------6----7--6-----|-----------------------|
--L----L-------------7--|----------------9---7--|--L----L-------------7--|----------------6---7--|
------------------------|--9----9----7----------|------------------------|--9----9----7----------|
------------------------|-----------------------|------------------------|-----------------------|


  Q    E  Q    E  E  E     E.   E.  E  E.  E.  E     E  E  E  E  E   E  E  E     Q    Q    E.  E.  E   
------------------------|-------------------------|---------------------------|-----------------------|
------------------------|--7---10---9--7-------7--|--L--L--L--L--L~--L--L--L--|-----------------------|
------------------6--9--|------------------9------|---------------------------|-----------------------|
--L----L--7----9--------|-------------------------|---------------------------|----------------6---7--|
------------------------|-------------------------|---------------------------|--9----9----7----------|
------------------------|-------------------------|---------------------------|-----------------------|


  Q    Q    E  E  E  E     Q    Q    E.  E.  E     Q    E  Q    E  E  E     Q    Q    E.  E.  E   
------------------------|-----------------------|------------------------|-----------------------|
------------------------|-----------------------|------------------------|-----------------------|
---------------7--6-----|-----------------------|----------6----7--6-----|-----------------------|
--L----L-------------7--|----------------9---7--|--L----L-------------7--|----------------6---7--|
------------------------|--9----9----7----------|------------------------|--9----9----7----------|
------------------------|-----------------------|------------------------|-----------------------|


  Q    E  Q    E  E  E     E.   E.  E  E.  E.  E     E  E  E  E  E   E  E  E                           3x
------------------------|-------------------------|---------------------------|-----|-----|-----|------||
------------------------|--7---10---9--7-------7--|--L--L--L--L--L~--L--L--L--|-----|-----|-----|------||
------------------6--9--|------------------9------|---------------------------|-----|-----|-----|-----*||
--L----L--7----9--------|-------------------------|---------------------------|-----|-----|-----|-----*||
------------------------|-------------------------|---------------------------|-----|-----|-----|------||
------------------------|-------------------------|---------------------------|-----|-----|-----|------||


Rhythm 

      Q    Q    Q    Q       Q    Q    Q    Q       Q    Q    Q    Q       Q    Q    Q    Q       Q    Q    Q    Q     
E||-----------------------|----------------------|----------------------|----------------------|----------------------|
B||-----------------------|----------------------|----------------------|----------------------|----------------------|
G||*----------------------|----------------------|----------------------|----------------------|----------------------|
D||*----------------------|----------------------|----------------------|----------------------|----------------------|
A||-------------5----L----|--L----L----7----L----|--L----L----9----L----|--L----L----L----L----|--9----L----5----L----|
E||-------------5----L----|--L----L----7----L----|--L----L----9----L----|--L----L----L----L----|--9----L----5----L----|


  Q    Q    Q    Q       Q    Q    Q    Q       Q    Q    Q    Q       Q    Q    Q    Q       Q    Q    Q    Q     
----------------------|----------------------|----------------------|----------------------|----------------------|
----------------------|----------------------|----------------------|----------------------|----------------------|
----------------------|----------------------|----------------------|----------------------|----------------------|
----------------------|----------------------|----------------------|----------------------|----------------------|
--L----L----7----L----|--L----L----4----L----|--L----L----L----L----|--4----L----5----L----|--L----L----7----L----|
--L----L----7----L----|--L----L----5----L----|--L----L----L----L----|--5----L----5----L----|--L----L----7----L----|


  Q    Q    Q    Q       Q    Q    Q    Q       Q    Q    Q    Q       Q    Q    Q    Q       Q    Q    Q    Q     
----------------------|----------------------|----------------------|----------------------|----------------------|
----------------------|----------------------|----------------------|----------------------|----------------------|
----------------------|----------------------|----------------------|----------------------|----------------------|
----------------------|----------------------|----------------------|----------------------|----------------------|
--L----L----9----L----|--L----L----7----L----|--L----L----5----L----|--L----L----7----7----|--7----9----L----L----|
--L----L----9----L----|--L----L----7----L----|--L----L----5----L----|--L----L----7----7----|--7----9----L----L----|


  Q    Q    Q    Q       Q    Q                       Q    Q    E.  E.  E     Q    Q    Q    Q     
----------------------|------------|-------|-------|-----------------------|----------------------|
----------------------|------------|-------|-------|-----------------------|----------------------|
----------------------|------------|-------|-------|-----------------------|----------------------|
----------------------|------------|-------|-------|-----------------------|----------------------|
--L----L----L----L----|--L----L----|-------|-------|--5----5----7---7---9--|--L----L--------------|
--L----L----L----L----|--L----L----|-------|-------|--5----5----7---7---9--|--L----L--------------|


  Q    Q    E.  E.  E     Q    Q    Q    Q       Q    Q    E.  E.  E     Q    Q    Q    Q       Q    Q    Q.     E   
-----------------------|----------------------|-----------------------|----------------------|----------------------|
-----------------------|----------------------|-----------------------|----------------------|----------------------|
-----------------------|----------------------|-----------------------|----------------------|----------------------|
-----------------------|----------------------|-----------------------|----------------------|----------------------|
--5----5----7---7---9--|--L----L--------------|--5----5----7---7---9--|--L----L----7----L----|--5----L----7------9--|
--5----5----7---7---9--|--L----L--------------|--5----5----7---7---9--|--L----L----7----L----|--5----L----7------9--|


  Q    Q    Q    Q       Q    Q    E.  E.  E     Q    Q    Q    Q       Q    Q    E.  E.  E     Q    Q    Q    Q     
----------------------|-----------------------|----------------------|-----------------------|----------------------|
----------------------|-----------------------|----------------------|-----------------------|----------------------|
----------------------|-----------------------|----------------------|-----------------------|----------------------|
----------------------|-----------------------|----------------------|-----------------------|----------------------|
--L----L----L----L----|--5----5----7---7---9--|--L----L--------------|--5----5----7---7---9--|--L----L--------------|
--L----L----L----L----|--5----5----7---7---9--|--L----L--------------|--5----5----7---7---9--|--L----L--------------|


  Q    Q    E.  E.  E     Q    Q    Q    Q       Q    Q    Q.     E     Q    Q    Q    Q       Q    Q    Q.     E   
-----------------------|----------------------|----------------------|----------------------|----------------------|
-----------------------|----------------------|----------------------|----------------------|----------------------|
-----------------------|----------------------|----------------------|----------------------|----------------------|
-----------------------|----------------------|----------------------|----------------------|----------------------|
--5----5----7---7---9--|--L----L----7----L----|--5----L----7------9--|--L----L----L----L----|--5----L----7------9--|
--5----5----7---7---9--|--L----L----7----L----|--5----L----7------9--|--L----L----L----L----|--5----L----7------9--|


  Q    Q    Q    Q       Q    Q    E.  E.  E     Q    Q    Q    Q       Q    Q    E.  E.  E     Q    Q    Q    Q     
----------------------|-----------------------|----------------------|-----------------------|----------------------|
----------------------|-----------------------|----------------------|-----------------------|----------------------|
----------------------|-----------------------|----------------------|-----------------------|----------------------|
----------------------|-----------------------|----------------------|-----------------------|----------------------|
--L----L----L----L----|--5----5----7---7---9--|--L----L----L----L----|--5----5----7---7---9--|--L----L----7----L----|
--L----L----L----L----|--5----5----7---7---9--|--L----L----L----L----|--5----5----7---7---9--|--L----L----7----L----|


  Q    Q    Q.     E     Q    Q    Q    Q       Q    Q    Q.     E     Q    Q    Q    Q       Q    Q    E.  E.  E   
----------------------|----------------------|----------------------|----------------------|-----------------------|
----------------------|----------------------|----------------------|----------------------|-----------------------|
----------------------|----------------------|----------------------|----------------------|-----------------------|
----------------------|----------------------|----------------------|----------------------|-----------------------|
--5----L----7------9--|--L----L----L----L----|--5----L----7------9--|--L----L----L----L----|--5----5----7---7---9--|
--5----L----7------9--|--L----L----L----L----|--5----L----7------9--|--L----L----L----L----|--5----5----7---7---9--|


  Q    Q    Q    Q       Q    Q    E.  E.  E     Q    Q    Q    Q       Q    Q    Q.     E     Q    Q    Q    Q     
----------------------|-----------------------|----------------------|----------------------|----------------------|
----------------------|-----------------------|----------------------|----------------------|----------------------|
----------------------|-----------------------|----------------------|----------------------|----------------------|
----------------------|-----------------------|----------------------|----------------------|----------------------|
--L----L----L----L----|--5----5----7---7---9--|--L----L----7----L----|--5----L----7------9--|--L----L----L----L----|
--L----L----L----L----|--5----5----7---7---9--|--L----L----7----L----|--5----L----7------9--|--L----L----L----L----|


                                3x
-------|-------|-------|--------||
-------|-------|-------|--------||
-------|-------|-------|-------*||
-------|-------|-------|-------*||
-------|-------|-------|--------||
-------|-------|-------|--------||



Piano and then Left Bloopy

       S  S  S  S  S  S  S  S  E   E  E   E      S  E.   S  S  S  S E  E   E  E     Q     S  S  S  S E   E   S  E.   
E||---16-12-14----12-------------------------|-----------------------------------|----------------12----------------|
B||------------14----12-14-10----------------|----------------10-14--------------|-------------12-------------------|
G||*-----------------------------------------|----------11-13--------------------|-------13-14----------------------|
D||*-----------------------------------------|--12-14-------------------------9--|-----------------------------11---|
A||-----------------------------------9--12--|-------------------------9--11-----|--9----------------9--11--12------|
E||---------------------------10--12---------|-----------------------------------|----------------------------------|


   S. S. S. S. S  S  S  S  S  S  S  S  S  S     S  S  S  S  S  S  S  S  E   E  E   E   
-----------------14-16-17----16-14----14-12-|--17-------------------------------------|
-----------12-14----------14-------12-------|-----14-12-------------------------------|
--11-13-14----------------------------------|-----------13-14----14-------------------|
--------------------------------------------|-----------------11----14----------------|
--------------------------------------------|----------------------------------9--12--|
--------------------------------------------|--------------------------10--12---------|


   S  E.   S  S  S  S E   E   E   E      S  E.   S  S  S  E.   E   S  E.     S.  S. S. S. S  S  S  S  S  S  S  S  S  S  
-------------------------------------|------------------------------------|--------------------------------------------|
----------------10-14----------------|------------------------------------|-----------------------14-------------------|
----------11-13----------------------|--11-13---13-14-11------------------|--------------11-13-14----14-13-11-13-11-13-|
--12-14--------------------------11--|-------------------14---------------|-----------11-------------------------------|
----------------------9--11--12------|------------------------14--12-11---|--9--11-12----------------------------------|
-------------------------------------|------------------------------------|--------------------------------------------|


   S  S S  S  S S  S  S  S  S  S  S S S S  S    S S  S  S  S  S  S  S  S  S  S  S  S  S  S  S  
---------------------------------------------|------------------------------------------------|
---------------------------------------------|------------------------------------------------|
--13-11--------------11-13-11----11-9---9----|--9---------11-------11----------14-13----14-13-|
--------9---------------------11------9---11-|----9-------------------11----14-------14-------|
----------12-11-9-11-------------------------|------11-12----11----------12-------------------|
---------------------------------------------|------------------12----------------------------|


   S  S  S  S  E   E   S. S. S. S. S. T    S  E.   E   E   S. S. S. S. S. T     S  S  E.   E.   S  S  S  S  S  S  S  S  
----------------------------------------|-----------------------------------|------------------------------------------|
-------------------------12-------12----|-----------------12----------------|---------------------------------------12-|
--------------11------14----11-14----11-|--L-14---13---------14-11----14-13-|---L--------------11----11----13----14----|
--11-14-----------11--------------------|-------------14-----------14-------|-----14-11---14------11----11----11-------|
--------14-11---------------------------|-----------------------------------|------------------------------------------|
----------------------------------------|-----------------------------------|------------------------------------------|


  S  S  S  S  S  S  S  S  S  S  S  S  S  S  S  S     S  S  S  S  S S S S S S S S S S S S                          
-------------------------------------------------|--12----12-14-17-----------------------|-------|-------|-------|
--L----------------------------------12----12-14-|-----14--------------------------------|-------|-------|-------|
----13-11----------11----13----13-14----14-------|---------------------------------------|-------|-------|-------|
----------14----11----11----14-------------------|---------------------------------------|-------|-------|-------|
-------------14----------------------------------|---------------------------------------|-------|-------|-------|
-------------------------------------------------|---------------------------------------|-------|-------|-------|


           E   E   S  S  S  S  E   E   S  S  S  S     E   E   S  S  S  S  E   E   S  S  S  S  
-------|------21-----17-----------17-----17-------|------21-----17-----------17-----17-------|
-------|--19------21----17------------21----17-21-|--19------21----17------------21----17-21-|
-------|-------------------18-18------------------|-------------------18-18------------------|
-------|------------------------------------------|------------------------------------------|
-------|------------------------------------------|------------------------------------------|
-------|------------------------------------------|------------------------------------------|


   E   E   S  S  S  S  E   E   S  S  S  S     E   E   S  S  S  S  E   E   S  S  S  S  
------21-----17-----------17-----17-------|------21-----17-----------17-----17-------|
--19------21----17------------21----17-21-|--19------21----17------------21----17-21-|
-------------------18-18------------------|-------------------18-18------------------|
------------------------------------------|------------------------------------------|
------------------------------------------|------------------------------------------|
------------------------------------------|------------------------------------------|


   E   E   S  S  S  S  E   E   S  S  S  S     E   E   S  S  S  S  E   E   S  S  S  S  
------21-----17-----------17-----17-------|------21-----17-----------17-----17-------|
--19------21----17------------21----17-21-|--19------21----17------------21----17-21-|
-------------------18-18------------------|-------------------18-18------------------|
------------------------------------------|------------------------------------------|
------------------------------------------|------------------------------------------|
------------------------------------------|------------------------------------------|


   E   E   S  S  S  S  E   E   S  S  S  S     E   E   S  S  S  S  E   E   S  S  S  S  
------21-----17-----------17-----17-------|------21-----17-----------17-----17-------|
--19------21----17------------21----17-21-|--19------21----17------------21----17-21-|
-------------------18-18------------------|-------------------18-18------------------|
------------------------------------------|------------------------------------------|
------------------------------------------|------------------------------------------|
------------------------------------------|------------------------------------------|


   E   E   S  S  S  S  E   E   S  S  S  S     E   E   S  S  S  S  E   E   S  S  S  S  
------21-----17-----------17-----17-------|------21-----17-----------17-----17-------|
--19------21----17------------21----17-21-|--19------21----17------------21----17-21-|
-------------------18-18------------------|-------------------18-18------------------|
------------------------------------------|------------------------------------------|
------------------------------------------|------------------------------------------|
------------------------------------------|------------------------------------------|


   E   E   S  S  S  S  E   E   S  S  S  S     E   E   S  S  S  S  E   E   S  S  S  S  
------21-----17-----------17-----17-------|------21-----17-----------17-----17-------|
--19------21----17------------21----17-21-|--19------21----17------------21----17-21-|
-------------------18-18------------------|-------------------18-18------------------|
------------------------------------------|------------------------------------------|
------------------------------------------|------------------------------------------|
------------------------------------------|------------------------------------------|


   E   E   S  S  S  S  E   E   S  S  S  S     E   E   S  S  S  S  E   E   S  S  S  S  
------21-----17-----------17-----17-------|------21-----17-----------17-----17-------|
--19------21----17------------21----17-21-|--19------21----17------------21----17-21-|
-------------------18-18------------------|-------------------18-18------------------|
------------------------------------------|------------------------------------------|
------------------------------------------|------------------------------------------|
------------------------------------------|------------------------------------------|


   E   E   S  S  S  S  E   E   S  S  S  S     E   E   S  S  S  S  E   E   S  S  S  S  
------21-----17-----------17-----17-------|------21-----17-----------17-----17-------|
--19------21----17------------21----17-21-|--19------21----17------------21----17-21-|
-------------------18-18------------------|-------------------18-18------------------|
------------------------------------------|------------------------------------------|
------------------------------------------|------------------------------------------|
------------------------------------------|------------------------------------------|


   E   E   S  S  S  S  E   E   S  S  S  S     E   E   S  S  S  S  E   E   S  S  S  S  
------21-----17-----------17-----17-------|------21-----17-----------17-----17-------|
--19------21----17------------21----17-21-|--19------21----17------------21----17-21-|
-------------------18-18------------------|-------------------18-18------------------|
------------------------------------------|------------------------------------------|
------------------------------------------|------------------------------------------|
------------------------------------------|------------------------------------------|


   E   E   S  S  S  S  E   E   S  S  S  S     E   E   S  S  S  S  E   E   S  S  S  S  
------21-----17-----------17-----17-------|------21-----17-----------17-----17-------|
--19------21----17------------21----17-21-|--19------21----17------------21----17-21-|
-------------------18-18------------------|-------------------18-18------------------|
------------------------------------------|------------------------------------------|
------------------------------------------|------------------------------------------|
------------------------------------------|------------------------------------------|


   E   E   S  S  S  S  E   E   S  S  S  S     E   E   S  S  S  S  E   E   S  S  S  S  
------21-----17-----------17-----17-------|------21-----17-----------17-----17-------|
--19------21----17------------21----17-21-|--19------21----17------------21----17-21-|
-------------------18-18------------------|-------------------18-18------------------|
------------------------------------------|------------------------------------------|
------------------------------------------|------------------------------------------|
------------------------------------------|------------------------------------------|


   E   E   S  S  S  S  E   E   S  S  S  S     E   E   S  S  S  S  E   E   S  S  S  S  
------21-----17-----------17-----17-------|------21-----17-----------17-----17-------|
--19------21----17------------21----17-21-|--19------21----17------------21----17-21-|
-------------------18-18------------------|-------------------18-18------------------|
------------------------------------------|------------------------------------------|
------------------------------------------|------------------------------------------|
------------------------------------------|------------------------------------------|


   E   E   S  S  S  S  E   E   S  S  S  S     E   E   S  S  S  S  E   E   S  S  S  S  
------21-----17-----------17-----17-------|------21-----17-----------17-----17-------|
--19------21----17------------21----17-21-|--19------21----17------------21----17-21-|
-------------------18-18------------------|-------------------18-18------------------|
------------------------------------------|------------------------------------------|
------------------------------------------|------------------------------------------|
------------------------------------------|------------------------------------------|


   E   E   S  S  S  S  E   E   S  S  S  S     E   E   S  S  S  S  E   E   S  S  S  S  
------21-----17-----------17-----17-------|------21-----17-----------17-----17-------|
--19------21----17------------21----17-21-|--19------21----17------------21----17-21-|
-------------------18-18------------------|-------------------18-18------------------|
------------------------------------------|------------------------------------------|
------------------------------------------|------------------------------------------|
------------------------------------------|------------------------------------------|


   E   E   S  S  S  S  E   E   S  S  S  S     E   E   S  S  S  S  E   E   S  S  S  S  
------21-----17-----------17-----17-------|------21-----17-----------17-----17-------|
--19------21----17------------21----17-21-|--19------21----17------------21----17-21-|
-------------------18-18------------------|-------------------18-18------------------|
------------------------------------------|------------------------------------------|
------------------------------------------|------------------------------------------|
------------------------------------------|------------------------------------------|


   E   E   S  S  S  S  E   E   S  S  S  S     E   E   S  S  S  S  E   E   S  S  S  S  
------21-----17-----------17-----17-------|------21-----17-----------17-----17-------|
--19------21----17------------21----17-21-|--19------21----17------------21----17-21-|
-------------------18-18------------------|-------------------18-18------------------|
------------------------------------------|------------------------------------------|
------------------------------------------|------------------------------------------|
------------------------------------------|------------------------------------------|


   E   E   S  S  S  S  E   E   S  S  S  S     E   E   S  S  S  S  E   E   S  S  S  S          S  S  S  S  S  S  S  S  3x
------21-----17-----------17-----17-------|------21-----17-----------17-----17-------|----|-----14-16-17--------------||
--19------21----17------------21----17-21-|--19------21----17------------21----17-21-|----|--14----------12-14----12--||
-------------------18-18------------------|-------------------18-18------------------|----|--------------------14----*||
------------------------------------------|------------------------------------------|----|--------------------------*||
------------------------------------------|------------------------------------------|----|---------------------------||
------------------------------------------|------------------------------------------|----|---------------------------||


Pizzy and then Right Bloopy

       E  E   E  E   E  E  E  E      E  E   E  E   E  E  E  E      E  E   E  E   E  E  E  E   
E||-----------------17-----------|--16-----14------------------|-----------------------------|
B||----------14------------------|----------------17-----------|-----------------------------|
G||*--14-------------------------|-----------------------------|--16-----13-----14-----------|
D||*-----------------------------|-----------------------------|-----------------------------|
A||------------------------------|-----------------------------|-----------------------------|
E||------------------------------|-----------------------------|-----------------------------|


  E  E  E  E  E  E  E  E      E  E   E  E   E  E  E  E      E  E   E  E   E  E  E  E      E  E  E  E   E  E  E  E   
--------------------------|----------------17-----------|--16-----14------------------|--19-----------17-----------|
--------------------------|---------14------------------|----------------17-----------|----------------------------|
--------------------------|--14-------------------------|-----------------------------|----------------------------|
--------------------------|-----------------------------|-----------------------------|----------------------------|
--------------------------|-----------------------------|-----------------------------|----------------------------|
--------------------------|-----------------------------|-----------------------------|----------------------------|


  Q    Q    Q    Q        E  E   E  E   E  E  E  E      E  E   E  E   E  E  E  E      E  E   E  E   E  E  E  E   
----------------------|--14-----16-----21-----------|--19-----17-----16-----------|--14------------16-----------|
----------------------|-----------------------------|-----------------------------|---------17------------------|
----------------------|-----------------------------|-----------------------------|-----------------------------|
----------------------|-----------------------------|-----------------------------|-----------------------------|
----------------------|-----------------------------|-----------------------------|-----------------------------|
----------------------|-----------------------------|-----------------------------|-----------------------------|


   E  E   E  E   E  E  E  E      E  E   E  E   E  E  E  E      E  E   E  E   E  E   E  E      E  E   E  E  E  E  E  E   
--14-------------------------|-----------------------------|------------------------------|----------------------------|
---------17------------------|-----------------------------|------------------------------|----------------------------|
----------------16-----------|--16-----16-----18-----------|--16------------16-----14-----|--14-----14-----------------|
-----------------------------|-----------------------------|---------16-------------------|----------------------------|
-----------------------------|-----------------------------|------------------------------|----------------------------|
-----------------------------|-----------------------------|------------------------------|----------------------------|


                  E  E  S  S S  S  E   E  S  S S S    E  E  S  S S  S  E   E  S  S S S  
-------|-------|-----9-----------------------------|-----9-----------------------------|
-------|-------|--7-----9-10----------10--9-10---9-|--7-----9-10----------10--9-10---9-|
-------|-------|-------------9-----------------9---|-------------9-----------------9---|
-------|-------|---------------11-11---------------|---------------11-11---------------|
-------|-------|-----------------------------------|-----------------------------------|
-------|-------|-----------------------------------|-----------------------------------|


  E  E  S  S S  S  E   E  S  S S S    E  E  S  S S  S  E   E  S  S S S    E  E  S  S S  S  E   E  S  S S S  
-----9-----------------------------|-----9-----------------------------|-----9-----------------------------|
--7-----9-10----------10--9-10---9-|--7-----9-10----------10--9-10---9-|--7-----9-10----------10--9-10---9-|
-------------9-----------------9---|-------------9-----------------9---|-------------9-----------------9---|
---------------11-11---------------|---------------11-11---------------|---------------11-11---------------|
-----------------------------------|-----------------------------------|-----------------------------------|
-----------------------------------|-----------------------------------|-----------------------------------|


  E  E  S  S S  S  E   E  S  S S S    E  E  S  S S  S  E   E  S  S S S    E  E  S  S S  S  E   E  S  S S S  
-----9-----------------------------|-----9-----------------------------|-----9-----------------------------|
--7-----9-10----------10--9-10---9-|--7-----9-10----------10--9-10---9-|--7-----9-10----------10--9-10---9-|
-------------9-----------------9---|-------------9-----------------9---|-------------9-----------------9---|
---------------11-11---------------|---------------11-11---------------|---------------11-11---------------|
-----------------------------------|-----------------------------------|-----------------------------------|
-----------------------------------|-----------------------------------|-----------------------------------|


  E  E  S  S S  S  E   E  S  S S S    E  E  S  S S  S  E   E  S  S S S    E  E  S  S S  S  E   E  S  S S S  
-----9-----------------------------|-----9-----------------------------|-----9-----------------------------|
--7-----9-10----------10--9-10---9-|--7-----9-10----------10--9-10---9-|--7-----9-10----------10--9-10---9-|
-------------9-----------------9---|-------------9-----------------9---|-------------9-----------------9---|
---------------11-11---------------|---------------11-11---------------|---------------11-11---------------|
-----------------------------------|-----------------------------------|-----------------------------------|
-----------------------------------|-----------------------------------|-----------------------------------|


  E  E  S  S S  S  E   E  S  S S S    E  E  S  S S  S  E   E  S  S S S    E  E  S  S S  S  E   E  S  S S S  
-----9-----------------------------|-----9-----------------------------|-----9-----------------------------|
--7-----9-10----------10--9-10---9-|--7-----9-10----------10--9-10---9-|--7-----9-10----------10--9-10---9-|
-------------9-----------------9---|-------------9-----------------9---|-------------9-----------------9---|
---------------11-11---------------|---------------11-11---------------|---------------11-11---------------|
-----------------------------------|-----------------------------------|-----------------------------------|
-----------------------------------|-----------------------------------|-----------------------------------|


  E  E  S  S S  S  E   E  S  S S S    E  E  S  S S  S  E   E  S  S S S    E  E  S  S S  S  E   E  S  S S S  
-----9-----------------------------|-----9-----------------------------|-----9-----------------------------|
--7-----9-10----------10--9-10---9-|--7-----9-10----------10--9-10---9-|--7-----9-10----------10--9-10---9-|
-------------9-----------------9---|-------------9-----------------9---|-------------9-----------------9---|
---------------11-11---------------|---------------11-11---------------|---------------11-11---------------|
-----------------------------------|-----------------------------------|-----------------------------------|
-----------------------------------|-----------------------------------|-----------------------------------|


  E  E  S  S S  S  E   E  S  S S S    E  E  S  S S  S  E   E  S  S S S    E  E  S  S S  S  E   E  S  S S S  
-----9-----------------------------|-----9-----------------------------|-----9-----------------------------|
--7-----9-10----------10--9-10---9-|--7-----9-10----------10--9-10---9-|--7-----9-10----------10--9-10---9-|
-------------9-----------------9---|-------------9-----------------9---|-------------9-----------------9---|
---------------11-11---------------|---------------11-11---------------|---------------11-11---------------|
-----------------------------------|-----------------------------------|-----------------------------------|
-----------------------------------|-----------------------------------|-----------------------------------|


  E  E  S  S S  S  E   E  S  S S S    E  E  S  S S  S  E   E  S  S S S    E  E  S  S S  S  E   E  S  S S S  
-----9-----------------------------|-----9-----------------------------|-----9-----------------------------|
--7-----9-10----------10--9-10---9-|--7-----9-10----------10--9-10---9-|--7-----9-10----------10--9-10---9-|
-------------9-----------------9---|-------------9-----------------9---|-------------9-----------------9---|
---------------11-11---------------|---------------11-11---------------|---------------11-11---------------|
-----------------------------------|-----------------------------------|-----------------------------------|
-----------------------------------|-----------------------------------|-----------------------------------|


  E  E  S  S S  S  E   E  S  S S S    E  E  S  S S  S  E   E  S  S S S    E  E  S  S S  S  E   E  S  S S S  
-----9-----------------------------|-----9-----------------------------|-----9-----------------------------|
--7-----9-10----------10--9-10---9-|--7-----9-10----------10--9-10---9-|--7-----9-10----------10--9-10---9-|
-------------9-----------------9---|-------------9-----------------9---|-------------9-----------------9---|
---------------11-11---------------|---------------11-11---------------|---------------11-11---------------|
-----------------------------------|-----------------------------------|-----------------------------------|
-----------------------------------|-----------------------------------|-----------------------------------|


  E  E  S  S S  S  E   E  S  S S S    E  E  S  S S  S  E   E  S  S S S    E  E  S  S S  S  E   E  S  S S S  
-----9-----------------------------|-----9-----------------------------|-----9-----------------------------|
--7-----9-10----------10--9-10---9-|--7-----9-10----------10--9-10---9-|--7-----9-10----------10--9-10---9-|
-------------9-----------------9---|-------------9-----------------9---|-------------9-----------------9---|
---------------11-11---------------|---------------11-11---------------|---------------11-11---------------|
-----------------------------------|-----------------------------------|-----------------------------------|
-----------------------------------|-----------------------------------|-----------------------------------|


  E  E  S  S S  S  E   E  S  S S S    E  E  S  S S  S  E   E  S  S S S    E  E  S  S S  S  E   E  S  S S S  
-----9-----------------------------|-----9-----------------------------|-----9-----------------------------|
--7-----9-10----------10--9-10---9-|--7-----9-10----------10--9-10---9-|--7-----9-10----------10--9-10---9-|
-------------9-----------------9---|-------------9-----------------9---|-------------9-----------------9---|
---------------11-11---------------|---------------11-11---------------|---------------11-11---------------|
-----------------------------------|-----------------------------------|-----------------------------------|
-----------------------------------|-----------------------------------|-----------------------------------|


  E  E  S  S S  S  E   E  S  S S S    E  E  S  S S  S  E   E  S  S S S    E  E  S  S S  S  E   E  S  S S S  
-----9-----------------------------|-----9-----------------------------|-----9-----------------------------|
--7-----9-10----------10--9-10---9-|--7-----9-10----------10--9-10---9-|--7-----9-10----------10--9-10---9-|
-------------9-----------------9---|-------------9-----------------9---|-------------9-----------------9---|
---------------11-11---------------|---------------11-11---------------|---------------11-11---------------|
-----------------------------------|-----------------------------------|-----------------------------------|
-----------------------------------|-----------------------------------|-----------------------------------|


  E  E  S  S S  S  E   E  S  S S S    E  E  S  S S  S  E   E  S  S S S    E  E  S  S S  S  3x
-----9-----------------------------|-----9-----------------------------|-----9-------------||
--7-----9-10----------10--9-10---9-|--7-----9-10----------10--9-10---9-|--7-----9-10-------||
-------------9-----------------9---|-------------9-----------------9---|-------------9----*||
---------------11-11---------------|---------------11-11---------------|---------------11-*||
-----------------------------------|-----------------------------------|-------------------||
-----------------------------------|-----------------------------------|-------------------||


BASS

G||--------|-------|-------|-------|-------|-------|-------|-------|-------|-------|-------|-------|-------|-------|
D||*-------|-------|-------|-------|-------|-------|-------|-------|-------|-------|-------|-------|-------|-------|
A||--------|-------|-------|-------|-------|-------|-------|-------|-------|-------|-------|-------|-------|-------|
E||*-------|-------|-------|-------|-------|-------|-------|-------|-------|-------|-------|-------|-------|-------|
B||--------|-------|-------|-------|-------|-------|-------|-------|-------|-------|-------|-------|-------|-------|


                          Q    Q    Q    Q       Q    Q    Q    S S S S    E  S S S S S S E  S S S S E   
-------|-------|-------|----------------------|-----------------4-2-1---|----------------------------6--|
-------|-------|-------|--4----L----4----L----|--4----L----0----------2-|--0--7-0-0-0-7-7----9----------|
-------|-------|-------|----------------------|-------------------------|-----------------7----7-7-7----|
-------|-------|-------|----------------------|-------------------------|-------------------------------|
-------|-------|-------|----------------------|-------------------------|-------------------------------|


  E  S S S S S S E  S S S S S S    E  S S S S S S E  S S S S E     E  S S S S S S E  S S S S S S  
--L--6-------6-6----6-------6-6-|----------------------------6--|--L--6-------6-6----6-------6-6-|
-------4-4-4-----4----4-4-4-----|--0--7-0-0-0-7-7----9----------|-------4-4-4-----4----4-4-4-----|
--------------------------------|-----------------7----7-7-7----|--------------------------------|
--------------------------------|-------------------------------|--------------------------------|
--------------------------------|-------------------------------|--------------------------------|


  E  S S S S S S E  S S S S E     E  S S S S S S E  S S S S S S    E  S S S S S S E  S S S S E   
----------------------------6--|--L--6-------6-6----6-------6-6-|----------------------------6--|
--0--7-0-0-0-7-7----9----------|-------4-4-4-----4----4-4-4-----|--0--7-0-0-0-7-7----9----------|
-----------------7----7-7-7----|--------------------------------|-----------------7----7-7-7----|
-------------------------------|--------------------------------|-------------------------------|
-------------------------------|--------------------------------|-------------------------------|


  E  S S S S S S E  S S S S S S    E  S S S S S S E  S S S S E     E  S S S S S S E  S S S S S S  
--L--6-------6-6----6-------6-6-|----------------------------6--|--L--6-------6-6----6-------6-6-|
-------4-4-4-----4----4-4-4-----|--0--7-0-0-0-7-7----9----------|-------4-4-4-----4----4-4-4-----|
--------------------------------|-----------------7----7-7-7----|--------------------------------|
--------------------------------|-------------------------------|--------------------------------|
--------------------------------|-------------------------------|--------------------------------|


  E  S S S S S S E  S S S S E     E  S S S S S S E  S S S S S S    E  S S S S S S E  S S S S E   
----------------------------6--|--L--6-------6-6----6-------6-6-|----------------------------6--|
--0--7-0-0-0-7-7----9----------|-------4-4-4-----4----4-4-4-----|--0--7-0-0-0-7-7----9----------|
-----------------7----7-7-7----|--------------------------------|-----------------7----7-7-7----|
-------------------------------|--------------------------------|-------------------------------|
-------------------------------|--------------------------------|-------------------------------|


  E  S S S S S S E  S S S S S S    E  S S S S S S E  S S S S E     E  S S S S S S E  S S S S S S                      
--L--6-------6-6----6-------6-6-|----------------------------6--|--L--6-------6-6----6-------6-6-|----|----|----|----|
-------4-4-4-----4----4-4-4-----|--0--7-0-0-0-7-7----9----------|-------4-4-4-----4----4-4-4-----|----|----|----|----|
--------------------------------|-----------------7----7-7-7----|--------------------------------|----|----|----|----|
--------------------------------|-------------------------------|--------------------------------|----|----|----|----|
--------------------------------|-------------------------------|--------------------------------|----|----|----|----|


                 E  E  E  E  E  E  E   E     Q    Q    Q.     E     Q    Q    Q    Q       Q    Q    Q.     E   
----|----|----|---------------------------|----------------------|----------------------|----------------------|
----|----|----|---------------------------|----------------------|----------------------|----------------------|
----|----|----|--------------------9s--4--|--5----L----7------9--|--L----L----L----L----|--5----L----7------9--|
----|----|----|---------------------------|----------------------|----------------------|----------------------|
----|----|----|---------------------------|----------------------|----------------------|----------------------|


  Q    Q    Q    Q       Q    Q    Q.     E     Q    Q    Q    Q       Q    Q    Q.     E     Q    Q    Q    Q     
----------------------|----------------------|----------------------|----------------------|----------------------|
----------------------|----------------------|----------------------|----------------------|----------------------|
--L----L----L----L----|--5----L----7------9--|--L----L----7----L----|--5----L----7------9--|--L----L----L----L----|
----------------------|----------------------|----------------------|----------------------|----------------------|
----------------------|----------------------|----------------------|----------------------|----------------------|


                                3x
-------|-------|-------|--------||
-------|-------|-------|-------*||
-------|-------|-------|--------||
-------|-------|-------|-------*||
-------|-------|-------|--------||

Duration Legend
---------------
W - whole
H - half
Q - quarter
E - 8th
S - 16th
. - note dotted


Tablature Legend
----------------
L - tied note
(n) - ghost note
s - legato slide
~ - vibrato
Login or Register to remove this ad.

5 comments on Crimson Belvedere ~ Eastern Dream

Boss Jacob

5

Boss Jacob

:D

:D

So where is the strumming

So where is the strumming part that i can hear in the background of the song? I don't see in tabs for that in here

its up there! its the third

its up there! its the third track, starts out as

Rhythm 

      Q    Q    Q    Q       Q    Q    Q    Q       Q    Q    Q    Q       Q    Q    Q    Q       Q    Q    Q    Q     
E||-----------------------|----------------------|----------------------|----------------------|----------------------|
B||-----------------------|----------------------|----------------------|----------------------|----------------------|
G||*----------------------|----------------------|----------------------|----------------------|----------------------|
D||*----------------------|----------------------|----------------------|----------------------|----------------------|
A||-------------5----L----|--L----L----7----L----|--L----L----9----L----|--L----L----L----L----|--9----L----5----L----|
E||-------------5----L----|--L----L----7----L----|--L----L----9----L----|--L----L----L----L----|--9----L----5----L----|


If only their was a video

If only their was a video explaining how to do that part, the way im playing it doesnt sound like what i hear...