Beloved Tomboyish Girl (Touhou 6: Embodiment of Scarlet Devil) Guitar Tab

Submitted: Nov 01, 2014 by Bessem (Last updated: Dec 27, 2016)

5
Average: 5 (7 votes)
Download | Listen
Game: Touhou 6: Embodiment of Scarlet Devil
Composer(s): ZUN
Style: Arrangement, Fingerstyle
Series: Touhou

This song is also called Cirno's Theme

Click here for a video example.

AutoScroll: Slow | Medium | Fast
please Rate 
9

                            Beloved tomboyish girl                              


                                                                             Zun
Piste 1

     Q    E  E  E  S S E  E     E  E  E  E  E  E  E  E   
E||--------------------------|--------------------------|
B||--------------------------|--------------------------|
G||--------------------------|--2--------------------2--|
D||-------------4----2----4--|--------------4--2--4-----|
A||--------------------------|--------------------------|
E||--2----2--2--2--2---2--2--|--2--2--2--2--2--2--2--2--|


  E  E  E  E  E  E  E  E     E  E  E  E  E  E  E  E   
--------------------------|--------------------------|
--------------------------|-----------------------2--|
--L--4-----------------2--|--L-----------------------|
--------4--2--4--2--4-----|--------------4--2--4-----|
--------------------------|--------------------------|
--2--2--2--2--2--2--2--2--|--2--2--2--2--2--2--2--2--|


  E  E  E  E  E  E  E  E     E  E  E  E  E  E  E  E   
--------------------------|--------------------------|
--L--2--------------------|--------------------------|
--------4--------------2--|--L--------------------2--|
--------------4--2--4-----|--------------4--2--4-----|
--------------5--5--5--5--|--5--5--5--5--5--5--5--5--|
--2--2--2--2--------------|--------------------------|


  E  E  E  E  E  E  E  E     E  E  E  E  E  E  E  E   
--------------------------|--------------------------|
--------------------------|--------------------2-----|
--L--4-----------------2--|--L-----------------------|
--------4--2--4--2--4-----|-----------4--2--4--------|
--5--5--5--5--5--5--5--5--|--5--5--5-----------------|
--------------------------|-----------0--0--0--0--0--|


                                      |-3| |-3| |-3| |-3|     
  E  E  E  E  E  E  E  E     E  E  E  E  S E  S E  S E  S E   
--------------------------|----------------------------------|
--L--2--------------------|----------------------------------|
--------4--------------2--|--L--------L-----------------2----|
--------------4--2--4-----|--------------4----2----4---------|
--------------------------|----------------------------------|
--0--0--0--0--2--2--2--2--|--2--2--2--2----2----2----2----2--|


  E  E  E  E  E  E  E  E     E  E  E  E  E  E  E  E   
--------------------------|--------------------------|
--------------------------|-----------------------2--|
--L--4-----------------2--|--L-----------------------|
--------4--2--4--2--4-----|--------------4--2--4-----|
--------------------------|--------------------------|
--2--2--2--2--2--2--2--2--|--2--2--2--2--2--2--2--2--|


  E  E  E  E  E  E  E  E     E  E  E  S. T E  T E  T E  T E  T  
--------------------------|------------------------------------|
--L--2--------------------|------------------------------------|
--------4--------------2--|--L--------L-----------------2----L-|
--------------4--2--4-----|--------------4----2----4-----------|
--------------5--5--5--5--|--5--5--5--5----5----5----5----5----|
--2--2--2--2--------------|------------------------------------|


  E  E  E  E  E  E  E  E     E  E  E  E  E  E  E  E   
--------------------------|--------------------------|
--------------------------|--------------------2-----|
--L--4-----------------2--|--L-----------------------|
--------4--2--4--2--4-----|-----------4--2--4--------|
--5--5--5--5--5--5--5--5--|--5--5--5-----------------|
--------------------------|-----------0--0--0--0--0--|


  E  E  E  E  E  E  E  E     E  E  E  E  E  E  E  E
--------------------------|--------------------------|
--L--2-----------------1--|--L--0--------------------|
--------4-----2--0--2-----|--------0-----2-----------|
--------------------------|--------------------------|
--------------------------|--------------------------|
--0--0--0--0--1--1--1--1--|--3--3--3--3--5--5--5--5--|


              ^            ^            ^                       ^          
  E  E  E  E  Q.     E     E  E  E   E  H           E  E  E  E  Q.     E   
--------------0------0--|-----0------------------|-----------0--5------5--|
-----0--1--3------------|--1-----1p--0-----------|--L-----1---------------|
--2---------------------|---------------2--------|--L--2------------------|
------------------------|---------------0--------|------------------------|
--------------0---------|------------------------|------------------------|
------------------------|--3------------2--------|--L--2--------1---------|


  ^           ^                     ^            ^           ^            
  E  E  E  E  H           Q    Q    Q.     E     E  E  E  E  E  E  E  E   
--3--5--3-----0--------|--L-------------------|--------0-----------------|
-----------3-----------|-------0----1------1--|--0--1-----0--3--------3--|
-----------------------|----------------------|-----------------2--------|
-----------------------|----------------------|--------------------4-----|
-----------------------|------------0---------|--------------------------|
--3-----------0--------|--L-------------------|--3-----------2-----------|


             ^              ^           ^                      ^  ^          
  E  E  Q    E  E  E  E     E  E  E  E  Q.     E     E  E  E   E  Q.     E   
-------------------------|------------------------|---------------0------0--|
--------0----1--------1--|--0--------0--0---------|--------0h--1--1---------|
--2-------------2--------|-----0---------------2--|--2--2---------2---------|
-----4-------------3-----|--------0---------------|---------------2---------|
-------------------------|--------------0---------|---------------0---------|
-------------1-----------|--3---------------------|-------------------------|


  ^            ^                       ^            ^           ^         
  E  E  E   E  H           E  E  E  E  Q.     E     E  E  E  E  H         
-----0------------------|-----------0--5------5--|--3--5--3-----0--------|
--1-----1p--0-----------|--------1-----1---------|--3--------3--0--------|
--0------------2--------|--L--2--------2---------|--4-----------1--------|
--0------------0--------|--------------3---------|--5-----------2--------|
------------------------|------------------------|--------------2--------|
--3------------2--------|--L--2--------1---------|--3-----------0--------|


            ^            ^             ^                         ^            
  Q    Q    Q.     E     E  E  E  E    E  E  E  E     E  E  Q    E  E  E  E   
--L-------------------|--------0-------------------|-------------------------|
-------0----1------1--|--0--1-----0--2g3--------3--|--------0----1--------1--|
------------2---------|--0----------------2--------|--2-------------2--------|
------------2---------|--0-------------------4-----|-----4-------------3-----|
------------0---------|----------------------------|-------------------------|
--L-------------------|--3-------------2-----------|-------------1-----------|


  ^           ^            ^           ^           ^            
  E  E  E  E  Q.     E     H           E  E  E  E  E  E  E  E   
------------------------|-----------|--------------------------|
--0--------0--0---------|-----------|--5--------5--3--------3--|
-----0---------------2--|--2--------|-----5-----------4--------|
--------0---------------|-----------|--------7-----------5-----|
--------------0---------|--0--------|--------------------------|
--3---------------------|-----------|--5-----------3-----------|


  ^         ^            ^           ^                   
  Q.     E  Q.     E     E  E  E  E  E  E  E  E          
----------------------|--------------3-----------|-----||
--3------5--1------5--|--5--------5-----3-----3--|-----||
----------------------|-----5--------------4-----|-----||
----------------------|--------7-----------------|-----||
------------0---------|--------------------------|-----||
--3-------------------|--5-----------3-----------|-----||
Login or Register to remove this ad.

1 comment on Beloved Tomboyish Girl

Very nice

5

Very nice