Vessel of Stars ~ Casket of Star (SWR Version) (Touhou 4: Lotus Land Story) Bass/Guitar Tab

Submitted: Aug 11, 2014 by Bessem

0
Download | Listen
Game: Touhou 4: Lotus Land Story
Composer(s): ZUN
Style: 2 or more instruments, Tapped harmonics, Transcription
Series: Touhou

This song is also called Marisa Kirisame's Theme

AutoScroll: Slow | Medium | Fast
Marisa's theme in Touhou 10.5
always  in Am


Guitar 1

       E   E   E  Q     E   E   E     E   E   E   Q     E   E   E   
E||--------------------------------|-------------------------------|
B||-----------12-------10--12--15--|--L--13--12----------------12--|
G||-------14------9----------------|-------------14--------14------|
D||--/14---------------------------|-------------------14----------|
A||--------------------------------|-------------------------------|
E||--------------------------------|-------------------------------|


    E   E   E   Q     E   E    E     E   E   E   Q     E   E   E   
----------------------------------|--L----------------------------|
-----------12------------12--/15--|--L--13--12----------------12--|
-------14------------14-----------|-------------14--------14------|
--/14----------14-----------------|-------------------14----------|
----------------------------------|-------------------------------|
----------------------------------|-------------------------------|


   E   E   E   Q     E   E    E     E   E   E   Q     E   E   E   
---------------------------------|--L----------------------------|
----------12------------12--/15--|--L--13--12--------12--13--15--|
------14------------14-----------|-------------14----------------|
--14----------14-----------------|-------------------------------|
---------------------------------|-------------------------------|
---------------------------------|-------------------------------|


   E  Q     E  Q     E   E     Q     Q     E   E   E   E   
--12-------12-------12--12--|-------12----12--------------|
----------------------------|-----------------15--13--12--|
----------------------------|-----------------------------|
----------------------------|-----------------------------|
----------------------------|-----------------------------|
----------------------------|-----------------------------|


   Q.       Q     E   E   E     E   Q     Q     E   Q     
---------------------12------|---------------------------|
-------------------------15--|--L--12----------10--12----|
--12b------------14----------|-----------12--------------|
-----------14----------------|---------------------------|
-----------------------------|---------------------------|
-----------------------------|---------------------------|


   E   E   E   Q     E   E    E     W                 
---------------------------------|-------------------|
--10--12--13--12-----------------|-------------------|
--------------------12------/14--|--L----------------|
------------------------14-------|-------------------|
---------------------------------|-------------------|
---------------------------------|-------------------|


             TH                                                 
   Q.        Q     E   E   E      E   E   E   Q     E   E   E   
------------------12----------|--------------------------------|
----------------------15------|------------------------12------|
--14----------------------16--|--14--12------14----------------|
----------<>14----------------|----------14--------14------14--|
------------------------------|--------------------------------|
------------------------------|--------------------------------|


   E   E   E    Q     E   E   E     H        E   E   E   E   
---------------------------------|--------------------------|
--13--15--15b--15----20--15--13--|--L--------L--------------|
---------------------------------|------------------12--13--|
---------------------------------|--------------14----------|
---------------------------------|--------------------------|
---------------------------------|--------------------------|


   Q.      Q     E   E   E     E   Q     Q     E   Q     
--------------------12------|---------------------------|
------------------------15--|--L--12--------------12----|
--14------------14----------|-----------12----14--------|
----------14----------------|---------------------------|
----------------------------|---------------------------|
----------------------------|---------------------------|


   E   E   E   Q     E   E    E     W                 
---------------------------------|-------------------|
------12--13--12-----------------|-------------------|
--14----------------12------/14--|--L----------------|
------------------------14-------|-------------------|
---------------------------------|-------------------|
---------------------------------|-------------------|


   Q.      Q     E   E   E      E   E   E   Q     E   E   E   
----------12----------------|--------------------------------|
----------------15--13--12--|------------------------12------|
--14------------------------|--14--12------14----------------|
----------------------------|----------14--------14------14--|
----------------------------|--------------------------------|
----------------------------|--------------------------------|


   E   E   E   Q     E   E   E     W                   W                 
--------------------15----------|-------------------|-------------------|
--13--15--17--15--------15--13--|--L----------------|-------------------|
--------------------------------|-------------------|-------------------|
--------------------------------|-------------------|-------------------|
--------------------------------|-------------------|-------------------|
--------------------------------|-------------------|-------------------|


  W                   W                   W                   W                 
-------------------|-------------------|-------------------|-------------------|
-------------------|-------------------|-------------------|-------------------|
-------------------|-------------------|-------------------|-------------------|
-------------------|-------------------|-------------------|-------------------|
-------------------|-------------------|-------------------|-------------------|
-------------------|-------------------|-------------------|-------------------|


  W                   W                   W                   W                 
-------------------|-------------------|-------------------|-------------------|
-------------------|-------------------|-------------------|-------------------|
-------------------|-------------------|-------------------|-------------------|
-------------------|-------------------|-------------------|-------------------|
-------------------|-------------------|-------------------|-------------------|
-------------------|-------------------|-------------------|-------------------|


  W                   W                   W                   W                 
-------------------|-------------------|-------------------|-------------------|
-------------------|-------------------|-------------------|-------------------|
-------------------|-------------------|-------------------|-------------------|
-------------------|-------------------|-------------------|-------------------|
-------------------|-------------------|-------------------|-------------------|
-------------------|-------------------|-------------------|-------------------|


  W                   W                   Q.      E   E   E   E   E   
-------------------|-------------------|---------12------------------|
-------------------|-------------------|-------------15--13--12------|
-------------------|-------------------|-------------------------12--|
-------------------|-------------------|-----------------------------|
-------------------|-------------------|-----------------------------|
-------------------|-------------------|-----------------------------|


   E.  E.  Q     E   E   E      E.   E.   E   E.  E.  E   
----------------12--10------|----------------------------|
--10---8----------------13--|--12---13---12--10---8------|
-----------9----------------|-------------------------9--|
----------------------------|----------------------------|
----------------------------|----------------------------|
----------------------------|----------------------------|


   E.  E.  E  E.   E.   E      H         E   E   E   E   
------------------10---12--|----------------------------|
--10---8------9------------|--13--------13--12--10------|
-----------9---------------|------------------------12--|
---------------------------|----------------------------|
---------------------------|----------------------------|
---------------------------|----------------------------|


   E.  E.  Q     E   E   E      E.   E.   E   E.  E.  E   
----------------12--10------|----------------------------|
--10---8----------------13--|--12---13---12--10---8------|
-----------9----------------|-------------------------9--|
----------------------------|----------------------------|
----------------------------|----------------------------|
----------------------------|----------------------------|


  E.  E.  E  E  E   E   E      Q.      Q    E  E  E   
---------------------------|-------------------------|
-------------9-----13--12--|--12------10----5--6--8--|
--5---7---9-----9----------|-------------------------|
---------------------------|-------------------------|
---------------------------|-------------------------|
---------------------------|-------------------------|


   E.  E.  Q     E   E   E      E.   E.   E   E.  E.  E   
----------------12--10------|----------------------------|
--10---8----------------13--|--12---13---12--10---8------|
-----------9----------------|-------------------------9--|
----------------------------|----------------------------|
----------------------------|----------------------------|
----------------------------|----------------------------|


   E.  E.  E  E.   E.   E      H         E   E   E   E   
------------------10---12--|----------------------------|
--10---8------9------------|--13--------13--12--10------|
-----------9---------------|------------------------12--|
---------------------------|----------------------------|
---------------------------|----------------------------|
---------------------------|----------------------------|


   E.   E.  Q     E   E   E      E.   E.   E   E.   E.   S  S  
-----------------12--10------|-------15---13--12---10---------|
--10---------------------13--|--12----------------------10-12-|
-------12---9----------------|--------------------------------|
-----------------------------|--------------------------------|
-----------------------------|--------------------------------|
-----------------------------|--------------------------------|


   E.   E.   E   E.  E.  E      W                   H.           E  S  S   
------------10-----------8--|--/7----------------|--L------------L--8p-7h-|
--12---13-------12---9------|--------------------|------------------------|
----------------------------|--------------------|------------------------|
----------------------------|--------------------|------------------------|
----------------------------|--------------------|------------------------|
----------------------------|--------------------|------------------------|


   W                   W                     E   E   E  Q     E   E   E   
--\5----------------|--L----------------|--------------------------------|
--------------------|-------------------|-----------12-------10--12--15--|
--------------------|-------------------|-------14------9----------------|
--------------------|-------------------|--/14---------------------------|
--------------------|-------------------|--------------------------------|
--------------------|-------------------|--------------------------------|


  E   E   E   Q     E   E   E       E   E   E   Q     E   E    E   
-------------------------------|----------------------------------|
--L--13--12----------------12--|-----------12------------12--/15--|
-------------14--------14------|-------14------------14-----------|
-------------------14----------|--/14----------14-----------------|
-------------------------------|----------------------------------|
-------------------------------|----------------------------------|


  E   E   E   Q     E   E   E      E   E   E   Q     E   E    E   
--L----------------------------|---------------------------------|
--L--13--12----------------12--|----------12------------12--/15--|
-------------14--------14------|------14------------14-----------|
-------------------14----------|--14----------14-----------------|
-------------------------------|---------------------------------|
-------------------------------|---------------------------------|


  E   E   E   Q     E   E   E      E  Q     E  Q     E   E   
--L----------------------------|--12-------12-------12--12--|
--L--13--12------------13--15--|----------------------------|
-------------14----16----------|----------------------------|
-------------------------------|----------------------------|
-------------------------------|----------------------------|
-------------------------------|----------------------------|


  Q     Q     E   E   E   E      Q.       Q     E   E   E   
-------12----12--------------|---------------------12------|
-----------------15--13--12--|-------------------------15--|
-----------------------------|--12b------------14----------|
-----------------------------|-----------14----------------|
-----------------------------|-----------------------------|
-----------------------------|-----------------------------|


  E   Q     Q     E   Q        E   E   E   Q     E   E    E   
---------------------------|---------------------------------|
--L--12----------10--12----|--10--12--13--12-----------------|
-----------12--------------|--------------------12------/14--|
---------------------------|------------------------14-------|
---------------------------|---------------------------------|
---------------------------|---------------------------------|


                                 TH                
  W                    Q.        Q     E   E   E   
-------------------|------------------12----------|
-------------------|----------------------15------|
--L----------------|--14----------------------16--|
-------------------|----------<>14----------------|
-------------------|------------------------------|
-------------------|------------------------------|


   E   E   E   Q     E   E   E      E   E   E    Q     E   E   E   
--------------------------------|---------------------------------|
------------------------12------|--13--15--15b--15----20--15--13--|
--14--12------14----------------|---------------------------------|
----------14--------14------14--|---------------------------------|
--------------------------------|---------------------------------|
--------------------------------|---------------------------------|


  H        E   E   E   E      Q.      Q     E   E   E   
--------------------------|--------------------12------|
--L--------L--------------|------------------------15--|
------------------12--13--|--14------------14----------|
--------------14----------|----------14----------------|
--------------------------|----------------------------|
--------------------------|----------------------------|


  E   Q     Q     E   Q        E   E   E   Q     E   E    E   
---------------------------|---------------------------------|
--L--12--------------12----|------12--13--12-----------------|
-----------12----14--------|--14----------------12------/14--|
---------------------------|------------------------14-------|
---------------------------|---------------------------------|
---------------------------|---------------------------------|


  W                    Q.      Q     E   E   E   
-------------------|----------12----------------|
-------------------|----------------15--13--12--|
--L----------------|--14------------------------|
-------------------|----------------------------|
-------------------|----------------------------|
-------------------|----------------------------|


   E   E   E   Q     E   E   E      E   E   E   Q     E   E   E   
--------------------------------|--------------------15----------|
------------------------12------|--13--15--17--15--------15--13--|
--14--12------14----------------|--------------------------------|
----------14--------14------14--|--------------------------------|
--------------------------------|--------------------------------|
--------------------------------|--------------------------------|


  W                   W                   W                   W                 
-------------------|-------------------|-------------------|-------------------|
--L----------------|-------------------|-------------------|-------------------|
-------------------|-------------------|-------------------|-------------------|
-------------------|-------------------|-------------------|-------------------|
-------------------|-------------------|-------------------|-------------------|
-------------------|-------------------|-------------------|-------------------|


  W                   W                   W                   W                 
-------------------|-------------------|-------------------|-------------------|
-------------------|-------------------|-------------------|-------------------|
-------------------|-------------------|-------------------|-------------------|
-------------------|-------------------|-------------------|-------------------|
-------------------|-------------------|-------------------|-------------------|
-------------------|-------------------|-------------------|-------------------|


  W                   W                   W                   W                 
-------------------|-------------------|-------------------|-------------------|
-------------------|-------------------|-------------------|-------------------|
-------------------|-------------------|-------------------|-------------------|
-------------------|-------------------|-------------------|-------------------|
-------------------|-------------------|-------------------|-------------------|
-------------------|-------------------|-------------------|-------------------|


  W                   W                   W                   W                 
-------------------|-------------------|-------------------|-------------------|
-------------------|-------------------|-------------------|-------------------|
-------------------|-------------------|-------------------|-------------------|
-------------------|-------------------|-------------------|-------------------|
-------------------|-------------------|-------------------|-------------------|
-------------------|-------------------|-------------------|-------------------|


  Q.      E   E   E   E   E      E.  E.  Q     E   E   E   
---------12------------------|----------------12--10------|
-------------15--13--12------|--10---8----------------13--|
-------------------------12--|-----------9----------------|
-----------------------------|----------------------------|
-----------------------------|----------------------------|
-----------------------------|----------------------------|


   E.   E.   E   E.  E.  E      E.  E.  E  E.   E.   E   
----------------------------|------------------10---12--|
--12---13---12--10---8------|--10---8------9------------|
-------------------------9--|-----------9---------------|
----------------------------|---------------------------|
----------------------------|---------------------------|
----------------------------|---------------------------|


   H         E   E   E   E      E.  E.  Q     E   E   E   
----------------------------|----------------12--10------|
--13--------13--12--10------|--10---8----------------13--|
------------------------12--|-----------9----------------|
----------------------------|----------------------------|
----------------------------|----------------------------|
----------------------------|----------------------------|


   E.   E.   E   E.  E.  E     E.  E.  E  E  E   E   E   
----------------------------|---------------------------|
--12---13---12--10---8------|-------------9-----13--12--|
-------------------------9--|--5---7---9-----9----------|
----------------------------|---------------------------|
----------------------------|---------------------------|
----------------------------|---------------------------|


   Q.      Q    E  E  E      E.  E.  Q     E   E   E   
-------------------------|----------------12--10------|
--12------10----5--6--8--|--10---8----------------13--|
-------------------------|-----------9----------------|
-------------------------|----------------------------|
-------------------------|----------------------------|
-------------------------|----------------------------|


   E.   E.   E   E.  E.  E      E.  E.  E  E.   E.   E   
----------------------------|------------------10---12--|
--12---13---12--10---8------|--10---8------9------------|
-------------------------9--|-----------9---------------|
----------------------------|---------------------------|
----------------------------|---------------------------|
----------------------------|---------------------------|


   H         E   E   E   E      E.   E.  Q     E   E   E   
----------------------------|-----------------12--10------|
--13--------13--12--10------|--10---------------------13--|
------------------------12--|-------12---9----------------|
----------------------------|-----------------------------|
----------------------------|-----------------------------|
----------------------------|-----------------------------|


   E.   E.   E   E.   E.   S  S     E.   E.   E   E.  E.  E   
-------15---13--12---10---------|------------10-----------8--|
--12----------------------10-12-|--12---13-------12---9------|
--------------------------------|----------------------------|
--------------------------------|----------------------------|
--------------------------------|----------------------------|
--------------------------------|----------------------------|


   W                   H.           E  S  S      W                 
--/7----------------|--L------------L--8p-7h-|--\5----------------|
--------------------|------------------------|--------------------|
--------------------|------------------------|--------------------|
--------------------|------------------------|--------------------|
--------------------|------------------------|--------------------|
--------------------|------------------------|--------------------|


  W                   W                  
--L----------------|-------------------||
-------------------|-------------------||
-------------------|-------------------||
-------------------|-------------------||
-------------------|-------------------||
-------------------|-------------------||




Guitar 2

     W                   W                   W                 
E||-------------------|-------------------|-------------------|
B||-------------------|-------------------|-------------------|
G||-------------------|-------------------|-------------------|
D||-------------------|-------------------|-------------------|
A||--7----------------|--L----------------|--5----------------|
E||--5----------------|--L----------------|--3----------------|


  W                   W                   W                 
-------------------|-------------------|-------------------|
-------------------|-------------------|-------------------|
-------------------|-------------------|-------------------|
-------------------|-------------------|-------------------|
--L----------------|--3----------------|--L----------------|
--L----------------|--1----------------|--L----------------|


  E  Q    E  Q    E  E     Q    Q     Q     Q       S S S S E  S S S S E  Q     
------------------------|------------------------|-----------------------------|
------------------------|------------------------|-----------------------------|
------------------------|------------------------|----------2----------2-------|
--9-------9-------9--9--|-------9----10----12----|----------2----------2-------|
--7-------7-------7--7--|-------7-----8----10----|--0-0-0------0-0-0-----------|
------------------------|------------------------|-----------------------------|


  S S S S E  S S S S E  Q       S S S S E  S S S S E  Q     
-----------------------------|-----------------------------|
-----------------------------|-----------------------------|
----------2----------2-------|-----------------------------|
----------2----------2-------|----------3----------5-------|
--0-0-0------0-0-0-----------|----------3----------5-------|
-----------------------------|--1-1-1------1-1-3-----------|


  S S S S E  S S S S E  Q       S S S S E  S S S S E  Q     
-----------------------------|-----------------------------|
-----------------------------|-----------------------------|
----------2----------2-------|----------2----------2-------|
----------2----------2-------|----------2----------2-------|
--0-0-0------0-0-0-----------|--0-0-0------0-0-0-----------|
-----------------------------|-----------------------------|


  S S S S E  S S S S E  Q       S S S S E  S S S S E  Q     
-----------------------------|-----------------------------|
-----------------------------|-----------------------------|
----------2----------2-------|-----------------------------|
----------2----------2-------|----------3----------5-------|
--0-0-0------0-0-0-----------|----------3----------5-------|
-----------------------------|--1-1-1------1-1-3-----------|


  S S S S E  S S S S E  Q       S S S S E  S S S S E  Q     
-----------------------------|-----------------------------|
-----------------------------|-----------------------------|
----------2----------2-------|----------2----------2-------|
----------2----------2-------|----------2----------2-------|
--0-0-0------0-0-0-----------|--0-0-0------0-0-0-----------|
-----------------------------|-----------------------------|


  S S S S E  S S S S E  Q       S S S S E  S S S S E  Q     
-----------------------------|-----------------------------|
-----------------------------|-----------------------------|
----------2----------2-------|-----------------------------|
----------2----------2-------|----------3----------5-------|
--0-0-0------0-0-0-----------|----------3----------5-------|
-----------------------------|--1-1-1------1-1-3-----------|


  S S S S E  S S S S E  Q       S S S S E  S S S S E  Q     
-----------------------------|-----------------------------|
-----------------------------|-----------------------------|
----------2----------2-------|----------2----------2-------|
----------2----------2-------|----------2----------2-------|
--0-0-0------0-0-0-----------|--0-0-0------0-0-0-----------|
-----------------------------|-----------------------------|


  S S S S E  S S S S E  Q       S S S S E  S S S S E  Q     
-----------------------------|-----------------------------|
-----------------------------|-----------------------------|
----------2----------2-------|-----------------------------|
----------2----------2-------|----------3----------5-------|
--0-0-0------0-0-0-----------|----------3----------5-------|
-----------------------------|--1-1-1------1-1-3-----------|


  S S S S E  S S S S E  Q       H        Q.     E     W                 
-----------------------------|---------------------|-------------------|
-----------------------------|---------------------|-------------------|
----------2----------2-------|---------------------|-------------------|
----------2----------2-------|--3--------5------7--|--L----------------|
--0-0-0------0-0-0-----------|--3--------5------7--|--L----------------|
-----------------------------|--1--------3------5--|--L----------------|


  H        Q.     E     W                   H        Q.     E   
---------------------|-------------------|---------------------|
---------------------|-------------------|---------------------|
---------------------|-------------------|---------------------|
-----------0------2--|--L----------------|--3--------5------7--|
--3--------0------2--|--L----------------|--3--------5------7--|
--3---------------0--|--L----------------|--1--------3------5--|


  W                   H        Q.     E     W                 
-------------------|---------------------|-------------------|
-------------------|---------------------|-------------------|
-------------------|---------------------|-------------------|
--L----------------|-----------0------2--|--L----------------|
--L----------------|--3--------0------2--|--L----------------|
--L----------------|--3---------------0--|--L----------------|


  H        Q.     E     W                   H        Q.     E   
---------------------|-------------------|---------------------|
---------------------|-------------------|---------------------|
---------------------|-------------------|---------------------|
--3--------5------7--|--L----------------|-----------0------2--|
--3--------5------7--|--L----------------|--3--------0------2--|
--1--------3------5--|--L----------------|--3---------------0--|


  W                   H        Q.     E     W                 
-------------------|---------------------|-------------------|
-------------------|---------------------|-------------------|
-------------------|---------------------|-------------------|
--L----------------|--3--------5------7--|--L----------------|
--L----------------|--3--------5------7--|--L----------------|
--L----------------|--1--------3------5--|--L----------------|


  H        Q.     E     W                   S S S S E  S S S S E  Q     
---------------------|-------------------|-----------------------------|
---------------------|-------------------|-----------------------------|
---------------------|-------------------|-----------------------------|
--2--------3------6--|--L----------------|----------3----------5-------|
--3--------5------7--|--L----------------|----------3----------5-------|
---------------------|-------------------|--1-1-1------1-1-3-----------|


  S S S S E  S S S S E  Q       S S S S E  S S S S E  Q     
-----------------------------|-----------------------------|
-----------------------------|-----------------------------|
----------2----------2-------|-----------------------------|
----------2----------2-------|----------3----------5-------|
--0-0-0------0-0-0-----------|----------3----------5-------|
-----------------------------|--1-1-1------1-1-3-----------|


  S S S S E  S S S S E  Q       S S S S E  S S S S E  Q     
-----------------------------|-----------------------------|
-----------------------------|-----------------------------|
----------2----------2--0----|-----------------------------|
----------2----------2--0----|----------3----------5-------|
--0-0-0------0-0-0-----------|----------3----------5-------|
-----------------------------|--1-1-1------1-1-3-----------|


  S S S S E  S S S S E  Q       S S S S E  S S S S E  Q     
-----------------------------|-----------------------------|
-----------------------------|-----------------------------|
----------2----------2-------|-----------------------------|
----------2----------2-------|----------3----------5-------|
--0-0-0------0-0-0-----------|----------3----------5-------|
-----------------------------|--1-1-1------1-1-3-----------|


  S S S S E  S S S S E  Q       S S S S E  S S S S E  Q     
-----------------------------|-----------------------------|
-----------------------------|-----------------------------|
----------2----------2--0----|-----------------------------|
----------2----------2--0----|----------3----------5-------|
--0-0-0------0-0-0-----------|----------3----------5-------|
-----------------------------|--1-1-1------1-1-3-----------|


  S S S S E  S S S S E  Q       S S S S E  S S S S E  Q     
-----------------------------|-----------------------------|
-----------------------------|-----------------------------|
----------2----------2-------|-----------------------------|
----------2----------2-------|----------3----------5-------|
--0-0-0------0-0-0-----------|----------3----------5-------|
-----------------------------|--1-1-1------1-1-3-----------|


  S S S S E  S S S S E  Q       S S S S E  S S S S E  Q     
-----------------------------|-----------------------------|
-----------------------------|-----------------------------|
----------2----------2--0----|-----------------------------|
----------2----------2--0----|----------3----------5-------|
--0-0-0------0-0-0-----------|----------3----------5-------|
-----------------------------|--1-1-1------1-1-3-----------|


  S S S S E  S S S S E  Q       S S S S E  S S S S E  Q     
-----------------------------|-----------------------------|
-----------------------------|-----------------------------|
----------2----------2-------|-----------------------------|
----------2----------2-------|----------3----------5-------|
--0-0-0------0-0-0-----------|----------3----------5-------|
-----------------------------|--1-1-1------1-1-3-----------|


  S S S S E  S S S S E  Q       S S S S E  S S S S E  Q     
-----------------------------|-----------------------------|
-----------------------------|-----------------------------|
----------2----------2--0----|----------2----------2-------|
----------2----------2--0----|----------2----------2-------|
--0-0-0------0-0-0-----------|--0-0-0------0-0-0-----------|
-----------------------------|-----------------------------|


  S S S S E  S S S S E  Q       S S S S E  S S S S E  E  E   
-----------------------------|------------------------------|
-----------------------------|------------------------------|
----------2----------2-------|----------2----------2--2--0--|
----------2----------2-------|----------2----------2--2--0--|
--0-0-0------0-0-0-----------|--0-0-0------0-0-0------------|
-----------------------------|------------------------------|


  W                   W                   W                   W                 
-------------------|-------------------|-------------------|-------------------|
-------------------|-------------------|-------------------|-------------------|
-------------------|-------------------|-------------------|-------------------|
-------------------|-------------------|-------------------|-------------------|
--7----------------|--L----------------|--5----------------|--L----------------|
--5----------------|--L----------------|--3----------------|--L----------------|


  W                   W                   E  Q    E  Q    E  E   
-------------------|-------------------|------------------------|
-------------------|-------------------|------------------------|
-------------------|-------------------|------------------------|
-------------------|-------------------|--9-------9-------9--9--|
--3----------------|--L----------------|--7-------7-------7--7--|
--1----------------|--L----------------|------------------------|


  Q    Q     Q     Q       S S S S E  S S S S E  Q     
------------------------|-----------------------------|
------------------------|-----------------------------|
------------------------|----------2----------2-------|
-------9----10----12----|----------2----------2-------|
-------7-----8----10----|--0-0-0------0-0-0-----------|
------------------------|-----------------------------|


  S S S S E  S S S S E  Q       S S S S E  S S S S E  Q     
-----------------------------|-----------------------------|
-----------------------------|-----------------------------|
----------2----------2-------|-----------------------------|
----------2----------2-------|----------3----------5-------|
--0-0-0------0-0-0-----------|----------3----------5-------|
-----------------------------|--1-1-1------1-1-3-----------|


  S S S S E  S S S S E  Q       S S S S E  S S S S E  Q     
-----------------------------|-----------------------------|
-----------------------------|-----------------------------|
----------2----------2-------|----------2----------2-------|
----------2----------2-------|----------2----------2-------|
--0-0-0------0-0-0-----------|--0-0-0------0-0-0-----------|
-----------------------------|-----------------------------|


  S S S S E  S S S S E  Q       S S S S E  S S S S E  Q     
-----------------------------|-----------------------------|
-----------------------------|-----------------------------|
----------2----------2-------|-----------------------------|
----------2----------2-------|----------3----------5-------|
--0-0-0------0-0-0-----------|----------3----------5-------|
-----------------------------|--1-1-1------1-1-3-----------|


  S S S S E  S S S S E  Q       S S S S E  S S S S E  Q     
-----------------------------|-----------------------------|
-----------------------------|-----------------------------|
----------2----------2-------|----------2----------2-------|
----------2----------2-------|----------2----------2-------|
--0-0-0------0-0-0-----------|--0-0-0------0-0-0-----------|
-----------------------------|-----------------------------|


  S S S S E  S S S S E  Q       S S S S E  S S S S E  Q     
-----------------------------|-----------------------------|
-----------------------------|-----------------------------|
----------2----------2-------|-----------------------------|
----------2----------2-------|----------3----------5-------|
--0-0-0------0-0-0-----------|----------3----------5-------|
-----------------------------|--1-1-1------1-1-3-----------|


  S S S S E  S S S S E  Q       S S S S E  S S S S E  Q     
-----------------------------|-----------------------------|
-----------------------------|-----------------------------|
----------2----------2-------|----------2----------2-------|
----------2----------2-------|----------2----------2-------|
--0-0-0------0-0-0-----------|--0-0-0------0-0-0-----------|
-----------------------------|-----------------------------|


  S S S S E  S S S S E  Q       S S S S E  S S S S E  Q     
-----------------------------|-----------------------------|
-----------------------------|-----------------------------|
----------2----------2-------|-----------------------------|
----------2----------2-------|----------3----------5-------|
--0-0-0------0-0-0-----------|----------3----------5-------|
-----------------------------|--1-1-1------1-1-3-----------|


  S S S S E  S S S S E  Q       H        Q.     E     W                 
-----------------------------|---------------------|-------------------|
-----------------------------|---------------------|-------------------|
----------2----------2-------|---------------------|-------------------|
----------2----------2-------|--3--------5------7--|--L----------------|
--0-0-0------0-0-0-----------|--3--------5------7--|--L----------------|
-----------------------------|--1--------3------5--|--L----------------|


  H        Q.     E     W                   H        Q.     E   
---------------------|-------------------|---------------------|
---------------------|-------------------|---------------------|
---------------------|-------------------|---------------------|
-----------0------2--|--L----------------|--3--------5------7--|
--3--------0------2--|--L----------------|--3--------5------7--|
--3---------------0--|--L----------------|--1--------3------5--|


  W                   H        Q.     E     W                 
-------------------|---------------------|-------------------|
-------------------|---------------------|-------------------|
-------------------|---------------------|-------------------|
--L----------------|-----------0------2--|--L----------------|
--L----------------|--3--------0------2--|--L----------------|
--L----------------|--3---------------0--|--L----------------|


  H        Q.     E     W                   H        Q.     E   
---------------------|-------------------|---------------------|
---------------------|-------------------|---------------------|
---------------------|-------------------|---------------------|
--3--------5------7--|--L----------------|-----------0------2--|
--3--------5------7--|--L----------------|--3--------0------2--|
--1--------3------5--|--L----------------|--3---------------0--|


  W                   H        Q.     E     W                 
-------------------|---------------------|-------------------|
-------------------|---------------------|-------------------|
-------------------|---------------------|-------------------|
--L----------------|--3--------5------7--|--L----------------|
--L----------------|--3--------5------7--|--L----------------|
--L----------------|--1--------3------5--|--L----------------|


  H        Q.     E     W                   S S S S E  S S S S E  Q     
---------------------|-------------------|-----------------------------|
---------------------|-------------------|-----------------------------|
---------------------|-------------------|-----------------------------|
--2--------3------6--|--L----------------|----------3----------5-------|
--3--------5------7--|--L----------------|----------3----------5-------|
---------------------|-------------------|--1-1-1------1-1-3-----------|


  S S S S E  S S S S E  Q       S S S S E  S S S S E  Q     
-----------------------------|-----------------------------|
-----------------------------|-----------------------------|
----------2----------2-------|-----------------------------|
----------2----------2-------|----------3----------5-------|
--0-0-0------0-0-0-----------|----------3----------5-------|
-----------------------------|--1-1-1------1-1-3-----------|


  S S S S E  S S S S E  Q       S S S S E  S S S S E  Q     
-----------------------------|-----------------------------|
-----------------------------|-----------------------------|
----------2----------2--0----|-----------------------------|
----------2----------2--0----|----------3----------5-------|
--0-0-0------0-0-0-----------|----------3----------5-------|
-----------------------------|--1-1-1------1-1-3-----------|


  S S S S E  S S S S E  Q       S S S S E  S S S S E  Q     
-----------------------------|-----------------------------|
-----------------------------|-----------------------------|
----------2----------2-------|-----------------------------|
----------2----------2-------|----------3----------5-------|
--0-0-0------0-0-0-----------|----------3----------5-------|
-----------------------------|--1-1-1------1-1-3-----------|


  S S S S E  S S S S E  Q       S S S S E  S S S S E  Q     
-----------------------------|-----------------------------|
-----------------------------|-----------------------------|
----------2----------2--0----|-----------------------------|
----------2----------2--0----|----------3----------5-------|
--0-0-0------0-0-0-----------|----------3----------5-------|
-----------------------------|--1-1-1------1-1-3-----------|


  S S S S E  S S S S E  Q       S S S S E  S S S S E  Q     
-----------------------------|-----------------------------|
-----------------------------|-----------------------------|
----------2----------2-------|-----------------------------|
----------2----------2-------|----------3----------5-------|
--0-0-0------0-0-0-----------|----------3----------5-------|
-----------------------------|--1-1-1------1-1-3-----------|


  S S S S E  S S S S E  Q       S S S S E  S S S S E  Q     
-----------------------------|-----------------------------|
-----------------------------|-----------------------------|
----------2----------2--0----|-----------------------------|
----------2----------2--0----|----------3----------5-------|
--0-0-0------0-0-0-----------|----------3----------5-------|
-----------------------------|--1-1-1------1-1-3-----------|


  S S S S E  S S S S E  Q       S S S S E  S S S S E  Q     
-----------------------------|-----------------------------|
-----------------------------|-----------------------------|
----------2----------2-------|-----------------------------|
----------2----------2-------|----------3----------5-------|
--0-0-0------0-0-0-----------|----------3----------5-------|
-----------------------------|--1-1-1------1-1-3-----------|


  S S S S E  S S S S E  Q       S S S S E  S S S S E  Q     
-----------------------------|-----------------------------|
-----------------------------|-----------------------------|
----------2----------2--0----|----------2----------2-------|
----------2----------2--0----|----------2----------2-------|
--0-0-0------0-0-0-----------|--0-0-0------0-0-0-----------|
-----------------------------|-----------------------------|


  S S S S E  S S S S E  Q       S S S S E  S S S S E  E  E   
-----------------------------|------------------------------|
-----------------------------|------------------------------|
----------2----------2-------|----------2----------2--2--0--|
----------2----------2-------|----------2----------2--2--0--|
--0-0-0------0-0-0-----------|--0-0-0------0-0-0------------|
-----------------------------|------------------------------|


  W                  
-------------------||
-------------------||
-------------------||
-------------------||
-------------------||
-------------------||




Bass

     W                   W                   W                 
G||--2----------------|--L----------------|--0----------------|
D||-------------------|-------------------|-------------------|
A||-------------------|-------------------|-------------------|
E||-------------------|-------------------|-------------------|


  W                   W                   W                 
--L----------------|-------------------|-------------------|
-------------------|--3----------------|--L----------------|
-------------------|-------------------|-------------------|
-------------------|-------------------|-------------------|


  E  Q    E  Q    E  E     Q    Q    Q    Q       Q    Q    E  Q    E   
------------------------|-----------------0----|--2----2-------0----1--|
--2-------2-------2--2--|-------2----3---------|------------2----------|
------------------------|----------------------|-----------------------|
------------------------|----------------------|-----------------------|


  Q    Q    E  E  E  E     Q    Q    E  E  Q       Q    Q    E  Q    E   
--2----2-------2--1--0--|-------5----0-----0----|--2----2-------0----1--|
------------2-----------|--3------------2-------|------------2----------|
------------------------|-----------------------|-----------------------|
------------------------|-----------------------|-----------------------|


  Q    Q    E  Q    E     Q    Q    E  E  E  E     Q    Q    E  E  Q     
--2----2-------0----1--|--2----2-------2--1--0--|-------5----0-----0----|
------------2----------|------------2-----------|--3------------2-------|
-----------------------|------------------------|-----------------------|
-----------------------|------------------------|-----------------------|


  Q    Q    E  Q    E     Q    Q    E  Q    E     Q    Q    E  E  E  E   
--2----2-------0----1--|--2----2-------0----1--|--2----2-------2--1--0--|
------------2----------|------------2----------|------------2-----------|
-----------------------|-----------------------|------------------------|
-----------------------|-----------------------|------------------------|


  Q    Q    E  E  Q       Q    Q    E  Q    E     Q    Q    E  Q    E   
-------5----0-----0----|--2----2-------0----1--|--2----2-------0----1--|
--3------------2-------|------------2----------|------------2----------|
-----------------------|-----------------------|-----------------------|
-----------------------|-----------------------|-----------------------|


  Q    Q    E  E  E  E     Q    Q    E  E  Q       Q    Q    E  E  Q     
--2----2-------2--1--0--|-------5----0-----0----|--2----2----0-----0----|
------------2-----------|--3------------2-------|---------------2-------|
------------------------|-----------------------|-----------------------|
------------------------|-----------------------|-----------------------|


  E  E  E  E  E  E  E  E     E  E  E  E  E  E  E  E   
--------------0--0--0--2--|--L--2--------------------|
--3--3--3--3--------------|--------2--1--0-----------|
--------------------------|-----------------3--0--2--|
--------------------------|--------------------------|


  E  E  E  E  E  E  E  E     Q    E  E  Q    E  E     E  E  E  E  E  E  E  E   
--------------------------|-------9--7-------------|--------------0--0--0--2--|
--------------0--0--0--2--|--L----------9----7--9--|--------------------------|
--3--3--3--3--------------|------------------------|--8--8--8--8--------------|
--------------------------|------------------------|--------------------------|


  E  E  E  E  E  E  E  E     E  E  E  E  E  E  E  E   
--L--2--------------------|--------------------------|
--------2--1--0-----------|--------------0--0--0--2--|
-----------------3--0--2--|--3--3--3--3--------------|
--------------------------|--------------------------|


  E  E  E  E  E  E  E  E     E  E  E  E  E  E  E  E   
--------------0-----------|--------------0--0--0--2--|
--L--2--2--3-----3--2--2--|--3--3--3--3--------------|
--------------------------|--------------------------|
--------------------------|--------------------------|


  E  E  E  E  E  E  E  E     E  E  E  E  E  E  E  E     Q    E  E  Q    E  E   
--L--2--------------------|--------------------------|-------9--7-------------|
--------2--1--0-----------|--------------0--0--0--2--|--L----------9----7--9--|
-----------------3--0--2--|--3--3--3--3--------------|------------------------|
--------------------------|--------------------------|------------------------|


  E  E  E  E  E  E  E  E     E  E  E  E  E  E  E  E   
--------------0--0--0--2--|--L--2--------------------|
--------------------------|--------2--1--0-----------|
--8--8--8--8--------------|-----------------3--0--2--|
--------------------------|--------------------------|


  E  E  E  E  E  E  E  E     E  E  E  Q    E  E  E     Q    E.  S E  Q    E   
--------------------------|-----------7----7--4-----|-------5-----0-------0--|
--------------0--0--0--2--|--L--2--2-------------5--|--3--------3----2-------|
--3--3--3--3--------------|-------------------------|------------------------|
--------------------------|-------------------------|------------------------|


  Q    E.  S E  E  E  E     Q    E.  S E  Q    E     Q    E.  S E  E  E  E   
--2----2-----0-----9-----|-------5-----0-------0--|--2----2-----0-----9--7--|
-----------2----2--------|-----------3----2-------|-----------2----2--------|
----------------------7--|--8---------------------|-------------------------|
-------------------------|------------------------|-------------------------|


  Q    E.  S E  Q    E     Q    E.  S E  E  E  E     Q    E.  S E  Q    E   
-------5-----0-------0--|--2----2-----0-----9-----|-------5-----0-------0--|
-----------3----2-------|-----------2----2--------|-----------3----2-------|
--8---------------------|----------------------7--|--8---------------------|
------------------------|-------------------------|------------------------|


  Q    E.  S E  E  S S E     Q    E.  S E  Q    E     Q    E.  S E  E  E  E   
--2----2-----9--7----4----|-------5-----0-------0--|--2----2-----0-----9-----|
-----------2-------7---5--|--3--------3----2-------|-----------2----2--------|
--------------------------|------------------------|----------------------7--|
--------------------------|------------------------|-------------------------|


  Q    E.  S E  Q    E     Q    E.  S E  E  E  E     Q    E.  S E  Q    E   
-------5-----0-------0--|--2----2-----0-----9--7--|-------5-----0-------0--|
-----------3----2-------|-----------2----2--------|-----------3----2-------|
--8---------------------|-------------------------|--8---------------------|
------------------------|-------------------------|------------------------|


  Q    E.  S E  E  E  E     Q    E.  S E  Q    E     Q    E.  S E  E  E  E   
--2----2-----0-----9-----|-------5-----0-------0--|--2----2-----0-----0--1--|
-----------2----2--------|-----------3----2-------|-----------2----2--------|
----------------------7--|--8---------------------|-------------------------|
-------------------------|------------------------|-------------------------|


  E  E  S S E  E  Q    E     Q    Q    E   Q     E   
--2--9--7-5-4--2-------0--|--2----2----9--12----13--|
------------------2-------|-------------------------|
--------------------------|-------------------------|
--------------------------|-------------------------|


   E   E   S  S E  E  Q    E     W                   W                 
--14--------------------------|-------------------|-------------------|
------14--12-10-9--7-------5--|--7----------------|--L----------------|
----------------------7-------|-------------------|-------------------|
------------------------------|-------------------|-------------------|


  W                   W                   W                   W                 
--0----------------|--L----------------|-------------------|-------------------|
-------------------|-------------------|--3----------------|--L----------------|
-------------------|-------------------|-------------------|-------------------|
-------------------|-------------------|-------------------|-------------------|


  E  Q    E  Q    E  E     Q    Q    Q    Q       Q    Q    E  Q    E   
------------------------|-----------------0----|--2----2-------0----1--|
--2-------2-------2--2--|-------2----3---------|------------2----------|
------------------------|----------------------|-----------------------|
------------------------|----------------------|-----------------------|


  Q    Q    E  E  E  E     Q    Q    E  E  Q       Q    Q    E  Q    E   
--2----2-------2--1--0--|-------5----0-----0----|--2----2-------0----1--|
------------2-----------|--3------------2-------|------------2----------|
------------------------|-----------------------|-----------------------|
------------------------|-----------------------|-----------------------|


  Q    Q    E  Q    E     Q    Q    E  E  E  E     Q    Q    E  E  Q     
--2----2-------0----1--|--2----2-------2--1--0--|-------5----0-----0----|
------------2----------|------------2-----------|--3------------2-------|
-----------------------|------------------------|-----------------------|
-----------------------|------------------------|-----------------------|


  Q    Q    E  Q    E     Q    Q    E  Q    E     Q    Q    E  E  E  E   
--2----2-------0----1--|--2----2-------0----1--|--2----2-------2--1--0--|
------------2----------|------------2----------|------------2-----------|
-----------------------|-----------------------|------------------------|
-----------------------|-----------------------|------------------------|


  Q    Q    E  E  Q       Q    Q    E  Q    E     Q    Q    E  Q    E   
-------5----0-----0----|--2----2-------0----1--|--2----2-------0----1--|
--3------------2-------|------------2----------|------------2----------|
-----------------------|-----------------------|-----------------------|
-----------------------|-----------------------|-----------------------|


  Q    Q    E  E  E  E     Q    Q    E  E  Q       Q    Q    E  E  Q     
--2----2-------2--1--0--|-------5----0-----0----|--2----2----0-----0----|
------------2-----------|--3------------2-------|---------------2-------|
------------------------|-----------------------|-----------------------|
------------------------|-----------------------|-----------------------|


  E  E  E  E  E  E  E  E     E  E  E  E  E  E  E  E   
--------------0--0--0--2--|--L--2--------------------|
--3--3--3--3--------------|--------2--1--0-----------|
--------------------------|-----------------3--0--2--|
--------------------------|--------------------------|


  E  E  E  E  E  E  E  E     Q    E  E  Q    E  E     E  E  E  E  E  E  E  E   
--------------------------|-------9--7-------------|--------------0--0--0--2--|
--------------0--0--0--2--|--L----------9----7--9--|--------------------------|
--3--3--3--3--------------|------------------------|--8--8--8--8--------------|
--------------------------|------------------------|--------------------------|


  E  E  E  E  E  E  E  E     E  E  E  E  E  E  E  E   
--L--2--------------------|--------------------------|
--------2--1--0-----------|--------------0--0--0--2--|
-----------------3--0--2--|--3--3--3--3--------------|
--------------------------|--------------------------|


  E  E  E  E  E  E  E  E     E  E  E  E  E  E  E  E   
--------------0-----------|--------------0--0--0--2--|
--L--2--2--3-----3--2--2--|--3--3--3--3--------------|
--------------------------|--------------------------|
--------------------------|--------------------------|


  E  E  E  E  E  E  E  E     E  E  E  E  E  E  E  E     Q    E  E  Q    E  E   
--L--2--------------------|--------------------------|-------9--7-------------|
--------2--1--0-----------|--------------0--0--0--2--|--L----------9----7--9--|
-----------------3--0--2--|--3--3--3--3--------------|------------------------|
--------------------------|--------------------------|------------------------|


  E  E  E  E  E  E  E  E     E  E  E  E  E  E  E  E   
--------------0--0--0--2--|--L--2--------------------|
--------------------------|--------2--1--0-----------|
--8--8--8--8--------------|-----------------3--0--2--|
--------------------------|--------------------------|


  E  E  E  E  E  E  E  E     E  E  E  Q    E  E  E     Q    E.  S E  Q    E   
--------------------------|-----------7----7--4-----|-------5-----0-------0--|
--------------0--0--0--2--|--L--2--2-------------5--|--3--------3----2-------|
--3--3--3--3--------------|-------------------------|------------------------|
--------------------------|-------------------------|------------------------|


  Q    E.  S E  E  E  E     Q    E.  S E  Q    E     Q    E.  S E  E  E  E   
--2----2-----0-----9-----|-------5-----0-------0--|--2----2-----0-----9--7--|
-----------2----2--------|-----------3----2-------|-----------2----2--------|
----------------------7--|--8---------------------|-------------------------|
-------------------------|------------------------|-------------------------|


  Q    E.  S E  Q    E     Q    E.  S E  E  E  E     Q    E.  S E  Q    E   
-------5-----0-------0--|--2----2-----0-----9-----|-------5-----0-------0--|
-----------3----2-------|-----------2----2--------|-----------3----2-------|
--8---------------------|----------------------7--|--8---------------------|
------------------------|-------------------------|------------------------|


  Q    E.  S E  E  S S E     Q    E.  S E  Q    E     Q    E.  S E  E  E  E   
--2----2-----9--7----4----|-------5-----0-------0--|--2----2-----0-----9-----|
-----------2-------7---5--|--3--------3----2-------|-----------2----2--------|
--------------------------|------------------------|----------------------7--|
--------------------------|------------------------|-------------------------|


  Q    E.  S E  Q    E     Q    E.  S E  E  E  E     Q    E.  S E  Q    E   
-------5-----0-------0--|--2----2-----0-----9--7--|-------5-----0-------0--|
-----------3----2-------|-----------2----2--------|-----------3----2-------|
--8---------------------|-------------------------|--8---------------------|
------------------------|-------------------------|------------------------|


  Q    E.  S E  E  E  E     Q    E.  S E  Q    E     Q    E.  S E  E  E  E   
--2----2-----0-----9-----|-------5-----0-------0--|--2----2-----0-----0--1--|
-----------2----2--------|-----------3----2-------|-----------2----2--------|
----------------------7--|--8---------------------|-------------------------|
-------------------------|------------------------|-------------------------|


  E  E  S S E  E  Q    E     Q    Q    E   Q     E   
--2--9--7-5-4--2-------0--|--2----2----9--12----13--|
------------------2-------|-------------------------|
--------------------------|-------------------------|
--------------------------|-------------------------|


   E   E   S  S E  E  Q    E     W                  
--14--------------------------|-------------------||
------14--12-10-9--7-------5--|-------------------||
----------------------7-------|-------------------||
------------------------------|-------------------||
Login or Register to remove this ad.