Faint Dream ~ Inanimate Dream (Touhou 4: Lotus Land Story) Guitar Tab

Submitted: Sep 10, 2015 by Bessem

5
Average: 5 (1 vote)
Download | Listen
Game: Touhou 4: Lotus Land Story
Composer(s): ZUN
Style: 2 or more instruments, Transcription
Series: Touhou

This song is also called Yuuka Kazami's Theme

Click here for a video example.

AutoScroll: Slow | Medium | Fast
please rate comment share play cover and do anything you want !

Piste 1



     ^        ^      ^              ^           ^        ^      ^   
     H        Q.     E     H        H           H        Q.     E   
E||---------------------|--------------------|---------------------|
B||--3--------5------6--|--L--------8--------|--3--------5------6--|
G||--2--------4------5--|--L--------7--------|--2--------4------5--|
D||--0--------2------3--|--L--------5--------|--0--------2------3--|
A||--0--------2------3--|--L--------5--------|--0--------2------3--|
E||---------------------|--------------------|---------------------|


           ^           ^        ^      ^              ^         
  H        H           H        Q.     E     H        H         
--------------------|---------------------|--------------------|
--L--------8--------|--3--------5------6--|--L--------8--------|
--L--------7--------|--2--------4------5--|--L--------7--------|
--L--------5--------|--0--------2------3--|--L--------5--------|
--L--------5--------|--0--------2------3--|--L--------5--------|
--------------------|---------------------|--------------------|


  ^        ^      ^              ^           ^        ^      ^   
  H        Q.     E     H        H           H        Q.     E   
---------------------|--------------------|---------------------|
--3--------5------6--|--L--------8--------|--3--------5------6--|
--2--------4------5--|--L--------7--------|--2--------4------5--|
--0--------2------3--|--L--------5--------|--0--------2------3--|
--0--------2------3--|--L--------5--------|--0--------2------3--|
---------------------|--------------------|---------------------|


           ^           ^        ^      ^                                    
  H        H           H        Q.     E           E  E  E  E  E  E  E  E   
--------------------|---------------------|-----|--------------------------|
--L--------8--------|--3--------5------6--|-----|-----------1-----------1--|
--L--------7--------|--2--------4------5--|-----|--------2-----------2-----|
--L--------5--------|--0--------2------3--|-----|-----2-----------2--------|
--L--------5--------|--0--------2------3--|-----|--0-----------0-----------|
--------------------|---------------------|-----|--------------------------|


  E  E  E  E  E  E  E  E     E  E  E  E  E  E  E  E   
--------------------------|--------------------------|
-----------3-----------3--|-----------3-----------3--|
--------0-----------0-----|--------2-----------2-----|
-----2-----------2--------|-----0-----------0--------|
--------------------------|--------------------------|
--3-----------3-----------|--2-----------2-----------|


  E  E  E  E  E  E  E  E     E  E  E  E  E  E  E  E   
--------------------------|--------------------------|
-----------1-----------0--|-----------1-----------1--|
--------2-----------0-----|--------2-----------2-----|
-----3-----------0--------|-----2-----------2--------|
--------------------------|--0-----------0-----------|
--1-----------3-----------|--------------------------|


  E  E  E  E  E  E  E  E     E  E  E  E  E  E  E  E   
--------------------------|--------------------------|
-----------3-----------3--|-----------3-----------3--|
--------0-----------0-----|--------2-----------2-----|
-----2-----------2--------|-----0-----------0--------|
--------------------------|--------------------------|
--3-----------3-----------|--2-----------2-----------|


  E  E  E  E  E  E  E  E     E  E  E  E  E  E  E  E   
--------------------------|--------------------------|
-----------1-----------3--|-----------1-----------1--|
--------2-----------0-----|--------2-----------2-----|
-----3-----------0--------|-----2-----------2--------|
--------------------------|--0-----------0-----------|
--1-----------3-----------|--------------------------|


  E  E  E  E  E  E  E  E     E  E  E  E  E  E  E  E   
--------------------------|--------------------------|
-----------3-----------3--|-----------3-----------3--|
--------0-----------0-----|--------2-----------2-----|
-----2-----------2--------|-----0-----------0--------|
--------------------------|--------------------------|
--3-----------3-----------|--2-----------2-----------|


  E  E  E  E  E  E  E  E     E  E  E  E  E  E  E  E   
--------------------------|--------------------------|
-----------1-----------0--|-----------1-----------1--|
--------2-----------0-----|--------2-----------2-----|
-----3-----------0--------|-----2-----------2--------|
--------------------------|--0-----------0-----------|
--1-----------3-----------|--------------------------|


  E  E  E  E  E  E  E  E     E  E  E  E  E  E  E  E   
--------------------------|--------------------------|
-----------3-----------3--|-----------3-----------3--|
--------0-----------0-----|--------2-----------2-----|
-----2-----------2--------|-----0-----------0--------|
--------------------------|--------------------------|
--3-----------3-----------|--2-----------2-----------|


  E  E  E  E  E  E  E  E     E  E  E  E  E  E  E  E     E  E  E  E  Q    Q     
--------------------------|--------------------------|--------------3---------|
-----------1-----------0--|--------4-----------3-----|-----------4------------|
--------2-----------0-----|--------5--------------4--|--------5---------------|
-----3-----------0--------|-----------6-----3-----3--|-----5-------------3----|
--------------------------|-----6--------2-----------|--3----------------1----|
--1-----------3-----------|--4-----------------------|------------------------|


  E  E  E  E  E  E  E  E     E  E  E  E  E  E  E  E   
--------------------------|--------------3-----------|
--------4-----------3-----|-----------4-----4--------|
--------5--------------4--|--------5-----------5-----|
-----------6-----3-----3--|-----5-----------------5--|
-----6--------2-----------|--3-----------------------|
--4-----------------------|--------------------------|


  E  E  E  E  E  E  E  E     E  E  E  E  Q    Q       E  E  E  E  E  E  E  E   
--------------------------|--------------3---------|--------------------------|
--------4-----------3-----|-----------4------------|--------4-----------3-----|
--------5--------------4--|--------5---------------|--------5--------------4--|
-----------6-----3-----3--|-----5-------------3----|-----------6-----3-----3--|
-----6--------2-----------|--3----------------1----|-----6--------2-----------|
--4-----------------------|------------------------|--4-----------------------|


  E  E  E  E  E  E  E  E     E  E  E  E  E  E  E  E     E  E  E  E  Q    Q     
--------------3-----------|--------------------------|--------------3---------|
-----------4-----4--------|--------4-----------3-----|-----------4------------|
--------5-----------5-----|--------5--------------4--|--------5---------------|
-----5-----------------5--|-----------6-----3-----3--|-----5-------------3----|
--3-----------------------|-----6--------2-----------|--3----------------1----|
--------------------------|--4-----------------------|------------------------|


  E  E  E  E  E  E  E  E     E  E  E  E  E  E  E  E   
--------------------------|--------------3-----------|
--------4-----------3-----|-----------4-----4--------|
--------5--------------4--|--------5-----------5-----|
-----------6-----3-----3--|-----5-----------------5--|
-----6--------2-----------|--3-----------------------|
--4-----------------------|--------------------------|


  E  E  E  E  E  E  E  E     E  E  E  E  Q    Q       E  E  E  E  E  E  E  E   
--------------------------|--------------3---------|--------------------------|
--------4-----------3-----|-----------4------------|--------4-----------3-----|
--------5--------------4--|--------5---------------|--------5--------------4--|
-----------6-----3-----3--|-----5-------------3----|-----------6-----3-----3--|
-----6--------2-----------|--3----------------1----|-----6--------2-----------|
--4-----------------------|------------------------|--4-----------------------|


                                   ^        ^      ^                ^          
  E  E  E  E  E  E  E  E           H        Q.     E     H          H          
--------------3-----------|-----|---------------------|-----------------------|
-----------4-----4--------|-----|---------------------|-----------------------|
--------5-----------5-----|-----|--6--------8------9--|--L--------(11)--------|
-----5-----------------5--|-----|--6--------8------9--|--L---------11---------|
--3-----------------------|-----|--4--------6------7--|--L----------9---------|
--------------------------|-----|--4--------6------7--|--L----------9---------|


  ^        ^      ^               ^           ^        ^      ^   
  H        Q.     E     H         H           H        Q.     E   
---------------------|---------------------|---------------------|
---------------------|---------------------|---------------------|
--6--------8------9--|--L--------11--------|--6--------8------9--|
--6--------8------9--|--L--------11--------|--6--------8------9--|
--4--------6------7--|--L---------9--------|--4--------6------7--|
--4--------6------7--|--L---------9--------|--4--------6------7--|


            ^           ^        ^      ^               ^         
  H         H           H        Q.     E     H         H         
---------------------|---------------------|---------------------|
---------------------|---------------------|---------------------|
--L--------11--------|--6--------8------9--|--L--------11--------|
--L--------11--------|--6--------8------9--|--L--------11--------|
--L---------9--------|--4--------6------7--|--L---------9--------|
--L---------9--------|--4--------6------7--|--L---------9--------|


  ^        ^      ^               ^           ^        ^      ^         
  H        Q.     E     H         H           H        Q.     E         
---------------------|---------------------|---------------------|-----|
---------------------|---------------------|---------------------|-----|
--6--------8------9--|--L--------11--------|--6--------8------9--|-----|
--6--------8------9--|--L--------11--------|--6--------8------9--|-----|
--4--------6------7--|--L---------9--------|--4--------6------7--|-----|
--4--------6------7--|--L---------9--------|--4--------6------7--|-----|


  E  E  E  E  E  E  E  E     E  E  E  E  Q    Q       E  E  E  E  E  E  E  E   
--------------------------|--------------2---------|--------------------------|
--------3-----------2-----|-----------3------------|--------3-----------2-----|
--------4--------------3--|--------4---------------|--------4--------------3--|
-----------5-----2-----2--|-----4------------------|-----------5-----2-----2--|
-----5--------1-----------|--2----------------0----|-----5--------1-----------|
--3-----------------------|------------------------|--3-----------------------|


  E  E  E  E  E  E  E  E     E  E  E  E  E  E  E  E     E  E  E  E  Q    Q     
--------------2-----------|--------------------------|--------------2---------|
-----------3-----3--------|--------3-----------2-----|-----------3------------|
--------4-----------4-----|--------4--------------3--|--------4---------------|
-----4-----------------4--|-----------5-----2-----2--|-----4------------------|
--2-----------------------|-----5--------1-----------|--2----------------0----|
--------------------------|--3-----------------------|------------------------|


  E  E  E  E  E  E  E  E     E  E  E  E  E  E  E  E   
--------------------------|--------------2-----------|
--------3-----------2-----|-----------3-----3--------|
--------4--------------3--|--------4-----------4-----|
-----------5-----2-----2--|-----4-----------------4--|
-----5--------1-----------|--2-----------------------|
--3-----------------------|--------------------------|


  E  E  E  E  E  E  E  E     E  E  E  E  Q    Q       E  E  E  E  E  E  E  E   
--------------------------|--------------2---------|--------------------------|
--------3-----------2-----|-----------3------------|--------3-----------2-----|
--------4--------------3--|--------4---------------|--------4--------------3--|
-----------5-----2-----2--|-----4------------------|-----------5-----2-----2--|
-----5--------1-----------|--2----------------0----|-----5--------1-----------|
--3-----------------------|------------------------|--3-----------------------|


  E  E  E  E  E  E  E  E     E  E  E  E  E  E  E  E     E  E  E  E  Q    Q     
--------------2-----------|--------------------------|--------------2---------|
-----------3-----3--------|--------3-----------2-----|-----------3------------|
--------4-----------4-----|--------4--------------3--|--------4---------------|
-----4-----------------4--|-----------5-----2-----2--|-----4------------------|
--2-----------------------|-----5--------1-----------|--2----------------0----|
--------------------------|--3-----------------------|------------------------|


                                                        ^        ^         
  E  E  E  E  E  E  E  E     E  E  E  E  E  E  E  E     H        H         
--------------------------|--------------2-----------|--2-----------------|
--------3-----------2-----|-----------3-----3--------|--4--------6--------|
--------4--------------3--|--------4-----------4-----|--4--------7--------|
-----------5-----2-----2--|-----4-----------------4--|--4--------6--------|
-----5--------1-----------|--2-----------------------|--2--------5--------|
--3-----------------------|--------------------------|--------------------|


  ^            ^       ^        ^           ^            ^     
  H.           Q       H        H           H.           Q     
--6------------4----|--2-----------------|--6------------4----|
--7------------6----|--4--------6--------|--7------------6----|
--8------------6----|--4--------7--------|--8------------6----|
--8------------6----|--4--------6--------|--8------------6----|
--6------------4----|--2--------5--------|--6------------4----|
--------------------|--------------------|--------------------|


  ^        ^           ^            ^       ^        ^         
  H        H           H.           Q       H        H         
--2-----------------|--6------------4----|--2-----------------|
--4--------6--------|--7------------6----|--4--------6--------|
--4--------7--------|--8------------6----|--4--------7--------|
--4--------6--------|--8------------6----|--4--------6--------|
--2--------5--------|--6------------4----|--2--------5--------|
--------------------|--------------------|--------------------|


  ^            ^       ^        ^           ^            ^     
  H.           Q       H        H           H.           Q     
--6------------4----|--2-----------------|--6------------4----|
--7------------6----|--4--------6--------|--7------------6----|
--8------------6----|--4--------7--------|--8------------6----|
--8------------6----|--4--------6--------|--8------------6----|
--6------------4----|--2--------5--------|--6------------4----|
--------------------|--------------------|--------------------|


  ^        ^           ^            ^       ^        ^         
  H        H           H.           Q       H        H         
--2-----------------|--6------------4----|--2-----------------|
--4--------6--------|--7------------6----|--4--------6--------|
--4--------7--------|--8------------6----|--4--------7--------|
--4--------6--------|--8------------6----|--4--------6--------|
--2--------5--------|--6------------4----|--2--------5--------|
--------------------|--------------------|--------------------|


  ^            ^       ^        ^           ^            ^     
  H.           Q       H        H           H.           Q     
--6------------4----|--2-----------------|--6------------4----|
--7------------6----|--4--------6--------|--7------------6----|
--8------------6----|--4--------7--------|--8------------6----|
--8------------6----|--4--------6--------|--8------------6----|
--6------------4----|--2--------5--------|--6------------4----|
--------------------|--------------------|--------------------|


  ^        ^      ^              ^           ^        ^      ^   
  H        Q.     E     H        H           H        Q.     E   
---------------------|--------------------|---------------------|
--3--------5------6--|--L--------8--------|--3--------5------6--|
--2--------4------5--|--L--------7--------|--2--------4------5--|
--0--------2------3--|--L--------5--------|--0--------2------3--|
--0--------2------3--|--L--------5--------|--0--------2------3--|
---------------------|--------------------|---------------------|


           ^           ^        ^      ^              ^         
  H        H           H        Q.     E     H        H         
--------------------|---------------------|--------------------|
--L--------8--------|--3--------5------6--|--L--------8--------|
--L--------7--------|--2--------4------5--|--L--------7--------|
--L--------5--------|--0--------2------3--|--L--------5--------|
--L--------5--------|--0--------2------3--|--L--------5--------|
--------------------|---------------------|--------------------|


  ^        ^      ^              ^           ^        ^      ^   
  H        Q.     E     H        H           H        Q.     E   
---------------------|--------------------|---------------------|
--3--------5------6--|--L--------8--------|--3--------5------6--|
--2--------4------5--|--L--------7--------|--2--------4------5--|
--0--------2------3--|--L--------5--------|--0--------2------3--|
--0--------2------3--|--L--------5--------|--0--------2------3--|
---------------------|--------------------|---------------------|


           ^           ^        ^      ^                                    
  H        H           H        Q.     E           E  E  E  E  E  E  E  E   
--------------------|---------------------|-----|--------------------------|
--L--------8--------|--3--------5------6--|-----|-----------1-----------1--|
--L--------7--------|--2--------4------5--|-----|--------2-----------2-----|
--L--------5--------|--0--------2------3--|-----|-----2-----------2--------|
--L--------5--------|--0--------2------3--|-----|--0-----------0-----------|
--------------------|---------------------|-----|--------------------------|


  E  E  E  E  E  E  E  E     E  E  E  E  E  E  E  E   
--------------------------|--------------------------|
-----------3-----------3--|-----------3-----------3--|
--------0-----------0-----|--------2-----------2-----|
-----2-----------2--------|-----0-----------0--------|
--------------------------|--------------------------|
--3-----------3-----------|--2-----------2-----------|


  E  E  E  E  E  E  E  E     E  E  E  E  E  E  E  E   
--------------------------|--------------------------|
-----------1-----------0--|-----------1-----------1--|
--------2-----------0-----|--------2-----------2-----|
-----3-----------0--------|-----2-----------2--------|
--------------------------|--0-----------0-----------|
--1-----------3-----------|--------------------------|


  E  E  E  E  E  E  E  E     E  E  E  E  E  E  E  E   
--------------------------|--------------------------|
-----------3-----------3--|-----------3-----------3--|
--------0-----------0-----|--------2-----------2-----|
-----2-----------2--------|-----0-----------0--------|
--------------------------|--------------------------|
--3-----------3-----------|--2-----------2-----------|


  E  E  E  E  E  E  E  E     E  E  E  E  E  E  E  E   
--------------------------|--------------------------|
-----------1-----------3--|-----------1-----------1--|
--------2-----------0-----|--------2-----------2-----|
-----3-----------0--------|-----2-----------2--------|
--------------------------|--0-----------0-----------|
--1-----------3-----------|--------------------------|


  E  E  E  E  E  E  E  E     E  E  E  E  E  E  E  E   
--------------------------|--------------------------|
-----------3-----------3--|-----------3-----------3--|
--------0-----------0-----|--------2-----------2-----|
-----2-----------2--------|-----0-----------0--------|
--------------------------|--------------------------|
--3-----------3-----------|--2-----------2-----------|


  E  E  E  E  E  E  E  E     E  E  E  E  E  E  E  E   
--------------------------|--------------------------|
-----------1-----------0--|-----------1-----------1--|
--------2-----------0-----|--------2-----------2-----|
-----3-----------0--------|-----2-----------2--------|
--------------------------|--0-----------0-----------|
--1-----------3-----------|--------------------------|


  E  E  E  E  E  E  E  E     E  E  E  E  E  E  E  E   
--------------------------|--------------------------|
-----------3-----------3--|-----------3-----------3--|
--------0-----------0-----|--------2-----------2-----|
-----2-----------2--------|-----0-----------0--------|
--------------------------|--------------------------|
--3-----------3-----------|--2-----------2-----------|


  E  E  E  E  E  E  E  E    
--------------------------||
-----------1-----------0--||
--------2-----------0-----||
-----3-----------0--------||
--------------------------||
--1-----------3-----------||




Piste 2



      W                                           E  E   E  E  E   E  E  E   
E||--10----------------|-------|-------|-------|--8--7---------7---------8--|
B||--------------------|-------|-------|-------|--------10--------10--9-----|
G||--10----------------|-------|-------|-------|------------9---------------|
D||--------------------|-------|-------|-------|----------------------------|
A||--------------------|-------|-------|-------|----------------------------|
E||--------------------|-------|-------|-------|----------------------------|


  E  E   E  E   E  E  E  E     E  E  E  E  E  E  E  E   
--L--7---------10--8--7--8--|--------------------------|
--------10------------------|--------------------5-----|
------------9---------------|-----4--5--4--5--7-----7--|
----------------------------|--7-----------------------|
----------------------------|--------------------------|
----------------------------|--------------------------|


  E  E   E  E   E  E  E   E     E  E   E  E  E  E  E  E   
------------8--10--8--7------|--8--7---------7--5--4--8--|
-----8--10---------------10--|--------10-----------------|
--9--------------------------|------------9--------------|
-----------------------------|---------------------------|
-----------------------------|---------------------------|
-----------------------------|---------------------------|


  E  E   E  E   E  E  E  E     E  E  E  E  E  E  E  E     H        Q    Q     
--L--7---------10--8--7--8--|--------------------------|---------------------|
--------10------------------|--------------------5-----|---------------------|
------------9---------------|-----4--5--4--5--7-----7--|-----------2----4----|
----------------------------|--7-----------------------|---------------------|
----------------------------|--------------------------|---------------------|
----------------------------|--------------------------|---------------------|


  E  E  E  Q    E  Q       H.           E  E     Q.     Q.     Q     
------------------------|---------------------|---------------------|
----------------5-------|---------------3--5--|--3-------------3----|
--5--4--2--0-------4----|--5------------------|---------2-----------|
------------------------|---------------------|---------------------|
------------------------|---------------------|---------------------|
------------------------|---------------------|---------------------|


  E.  E.  E  E  E  E  E     E  E  E  Q    E  E  E     E  E  E  Q    E  Q     
------5---7--------5--7--|--8--7--5-------5--------|--8--7--5--3----5-------|
--5-------------5--------|-----------8-------5-----|-------------------3----|
-------------------------|-------------------------|------------------------|
-------------------------|-------------------------|------------------------|
-------------------------|-------------------------|------------------------|
-------------------------|-------------------------|------------------------|


  E  E  E  Q    E  E  E     E  E  E  E  E  E  E  E     E  E  E  Q    E  Q     
-------------------------|--------------------------|------------------------|
--5--3--1-------0--1-----|--------------------3--5--|----------------5-------|
-----------2-------------|--5--4--2--4--4--5--------|--5--4--2--0-------4----|
-------------------------|--------------------------|------------------------|
-------------------------|--------------------------|------------------------|
-------------------------|--------------------------|------------------------|


  H.           E  E     Q.     Q.     Q       E.  E.  E  E  E  E  E   
---------------------|---------------------|------5---7--------5--7--|
---------------3--5--|--3-------------3----|--5-------------5--------|
--5------------------|---------2-----------|-------------------------|
---------------------|---------------------|-------------------------|
---------------------|---------------------|-------------------------|
---------------------|---------------------|-------------------------|


  E  E  E  Q    E  E  E     E  E  E  Q    E  Q       E  E  E  Q    E  E  E   
--8--7--5-------5--------|--8--7--5--3----5-------|-------------------------|
-----------8-------5-----|-------------------3----|--5--3--1----------------|
-------------------------|------------------------|-----------2----4--5-----|
-------------------------|------------------------|-------------------------|
-------------------------|------------------------|-------------------------|
-------------------------|------------------------|-------------------------|


  E  E  E  E  E  E  E  E     E  E   E  E  E.  E.   E      E.   E.  E  H         
--------------------------|------------8--7---8---10--|--11---10---8--8--------|
--------------------3--5--|-----9--11-----------------|------------------------|
--5--4--2--4--4--5--------|---------------------------|------------------------|
--------------------------|---------------------------|------------------------|
--------------------------|---------------------------|------------------------|
--------------------------|---------------------------|------------------------|


  E  E  E  E  E.   E.   E      W                   E  E   E  E  E.  E.   E   
--------6--8--7---10---15--|--11----------------|------------8--7---8---10--|
-----9---------------------|--------------------|-----9--11-----------------|
---------------------------|--------------------|---------------------------|
---------------------------|--------------------|---------------------------|
---------------------------|--------------------|---------------------------|
---------------------------|--------------------|---------------------------|


   E.   E.  E  E.  E.  E     E  E  E  E   E.   E.   E   
--11---10---8-------------|--------6--8--10---15---13--|
---------------8---6------|-----9----------------------|
-----------------------8--|----------------------------|
--------------------------|----------------------------|
--------------------------|----------------------------|
--------------------------|----------------------------|


   E.   E.  E  H           E  E   E  E  E.  E.   E      E.   E.  E  H         
--11---10---8--8--------|------------8--7---8---10--|--11---10---8--8--------|
------------------------|-----9--11-----------------|------------------------|
------------------------|---------------------------|------------------------|
------------------------|---------------------------|------------------------|
------------------------|---------------------------|------------------------|
------------------------|---------------------------|------------------------|


  E  E  E  E  E.   E.   E      W                   E  E   E  E  E.  E.   E   
--------6--8--7---10---15--|--11----------------|------------8--7---8---10--|
-----9---------------------|--------------------|-----9--11-----------------|
---------------------------|--------------------|---------------------------|
---------------------------|--------------------|---------------------------|
---------------------------|--------------------|---------------------------|
---------------------------|--------------------|---------------------------|


   E.   E.  E  E.  E.  E     E  E  E  E   E.   E.   E   
--11---10---8-------------|--------6--8--10---15---13--|
---------------8---6------|-----9----------------------|
-----------------------8--|----------------------------|
--------------------------|----------------------------|
--------------------------|----------------------------|
--------------------------|----------------------------|


   E.   E.  E  H                                                         
--11---10---8--8--------|-----------|-----------|-----------|-----------|
------------------------|-----------|-----------|-----------|-----------|
------------------------|-----------|-----------|-----------|-----------|
------------------------|-----------|-----------|-----------|-----------|
------------------------|-----------|-----------|-----------|-----------|
------------------------|-----------|-----------|-----------|-----------|


              E  E  E  E  E  E  E  E     E  E  E  E  E  E  E  E   
-----------|--7--6--4-----6--4--3--7--|--L--6--4-----9--7--6--7--|
-----------|-----------4--------------|-----------4--------------|
-----------|--------------------------|--------------------------|
-----------|--------------------------|--------------------------|
-----------|--------------------------|--------------------------|
-----------|--------------------------|--------------------------|


  E  E  E  E  E  E  E  E     E  E  E  E  E  E  E  E   
--------------------------|--------------------------|
--------------------------|--------------------------|
--4--3--1-----3--1--0-----|--------------------------|
-----------1--------------|--------------------------|
-----------------------2--|--L--1-----2--4--2--1-----|
--------------------------|--------4--------------4--|


  E  E  E  E  E  E  E  E     E  E  E  E  E  E  E  E   
--7--6--4-----6--4--3--7--|--L--6--4-----9--7--6--4--|
-----------4--------------|-----------4--------------|
--------------------------|--------------------------|
--------------------------|--------------------------|
--------------------------|--------------------------|
--------------------------|--------------------------|


  E  E  E  E  E  E  E  E           E  E  E  E  E.  E.  E   
--------------------------|-----|-----3--5--7--6---7---9--|
--------------------------|-----|-------------------------|
--4--3--1-----3--1--0-----|-----|-------------------------|
-----------1--------------|-----|-------------------------|
-----------------------2--|-----|-------------------------|
--------------------------|-----|-------------------------|


   E.  E.  E  H           E  E  E  E  E.  E.   E      W                 
--10---9---7--7--------|--------5--7--6---9---14--|--10----------------|
-----------------------|-----8--------------------|--------------------|
-----------------------|--------------------------|--------------------|
-----------------------|--------------------------|--------------------|
-----------------------|--------------------------|--------------------|
-----------------------|--------------------------|--------------------|


  E  E   E  E  E.  E.  E      E.  E.  E  E.  E.  E   
------------7--6---7---9--|--10---9---7-------------|
-----8--10----------------|--------------7---5------|
--------------------------|----------------------7--|
--------------------------|-------------------------|
--------------------------|-------------------------|
--------------------------|-------------------------|


  E  E  E  E  E.   E.   E      E.  E.  E  H           E  E  E  E  E.  E.  E   
--------5--7--9---14---12--|--10---9---7--7--------|-----3--5--7--6---7---9--|
-----8---------------------|-----------------------|-------------------------|
---------------------------|-----------------------|-------------------------|
---------------------------|-----------------------|-------------------------|
---------------------------|-----------------------|-------------------------|
---------------------------|-----------------------|-------------------------|


   E.  E.  E  H           E  E  E  E  E.  E.   E      W                 
--10---9---7--7--------|--------5--7--6---9---14--|--10----------------|
-----------------------|-----8--------------------|--------------------|
-----------------------|--------------------------|--------------------|
-----------------------|--------------------------|--------------------|
-----------------------|--------------------------|--------------------|
-----------------------|--------------------------|--------------------|


  E  E   E  E  E.  E.  E      E.  E.  E  E.  E.  E   
------------7--6---7---9--|--10---9---7-------------|
-----8--10----------------|--------------7---5------|
--------------------------|----------------------7--|
--------------------------|-------------------------|
--------------------------|-------------------------|
--------------------------|-------------------------|


  E  E  E  E  E.   E.   E      E.  E.  E  H         
--------5--7--9---14---12--|--10---9---7--7--------|
-----8---------------------|-----------------------|
---------------------------|-----------------------|
---------------------------|-----------------------|
---------------------------|-----------------------|
---------------------------|-----------------------|


  E   E  E   E   E.   E.   E      E.   E.   E   H         
---------9--11--10---11---13--|--14---13---11--11--------|
-----12-----------------------|--------------------------|
------------------------------|--------------------------|
------------------------------|--------------------------|
------------------------------|--------------------------|
------------------------------|--------------------------|


  E   E  E   E   E.   E.   E      W                 
---------9--11--10---13---18--|--14----------------|
-----12-----------------------|--------------------|
------------------------------|--------------------|
------------------------------|--------------------|
------------------------------|--------------------|
------------------------------|--------------------|


  E   E   E   E   E.   E.   E      E.   E.   E   E.  E.   E   
-------------11--10---11---13--|--14---13---11---------------|
-----12--14--------------------|----------------11---9-------|
-------------------------------|-------------------------11--|
-------------------------------|-----------------------------|
-------------------------------|-----------------------------|
-------------------------------|-----------------------------|


  E   E  E   E   E.   E.   E      E.   E.   E   H         
---------9--11--13---18---16--|--14---13---11--11--------|
-----12-----------------------|--------------------------|
------------------------------|--------------------------|
------------------------------|--------------------------|
------------------------------|--------------------------|
------------------------------|--------------------------|


  E   E  E   E   E.   E.   E      E.   E.   E   H         
---------9--11--10---11---13--|--14---13---11--11--------|
-----12-----------------------|--------------------------|
------------------------------|--------------------------|
------------------------------|--------------------------|
------------------------------|--------------------------|
------------------------------|--------------------------|


  E   E  E   E   E.   E.   E      W                 
---------9--11--10---13---18--|--14----------------|
-----12-----------------------|--------------------|
------------------------------|--------------------|
------------------------------|--------------------|
------------------------------|--------------------|
------------------------------|--------------------|


  E   E   E   E   E.   E.   E      E.   E.   E   E.  E.   E   
-------------11--10---11---13--|--14---13---11---------------|
-----12--14--------------------|----------------11---9-------|
-------------------------------|-------------------------11--|
-------------------------------|-----------------------------|
-------------------------------|-----------------------------|
-------------------------------|-----------------------------|


  E   E  E   E   E.   E.   E      E.   E.   E   H                         
---------9--11--13---18---16--|--14---13---11--11--------|-------|-------|
-----12-----------------------|--------------------------|-------|-------|
------------------------------|--------------------------|-------|-------|
------------------------------|--------------------------|-------|-------|
------------------------------|--------------------------|-------|-------|
------------------------------|--------------------------|-------|-------|


                  E  E   E  E  E  E  E  E     E  E   E  E   E  E  E  E   
-------|-------|--8--7---------7--5--4--8--|--L--7---------10--8--7--8--|
-------|-------|--------10-----------------|--------10------------------|
-------|-------|------------9--------------|------------9---------------|
-------|-------|---------------------------|----------------------------|
-------|-------|---------------------------|----------------------------|
-------|-------|---------------------------|----------------------------|


  E  E  E  E  E  E  E  E     E  E  E  E  E  E  E  E   
--------------------------|--------------------------|
--------------------------|--------------------------|
--5--4--2--------------5--|--L--4--2-----7--5--4--5--|
-----------2--9--7--6-----|-----------2--------------|
--------------------------|--------------------------|
--------------------------|--------------------------|


  E  E   E  E  E  E  E  E     E  E   E  E   E  E  E  E   
--8--7---------7--5--4--8--|--L--7---------10--8--7--8--|
--------10-----------------|--------10------------------|
------------9--------------|------------9---------------|
---------------------------|----------------------------|
---------------------------|----------------------------|
---------------------------|----------------------------|


  E  E  E  E  E  E  E  E     H        Q    Q       E  E  E  Q    E  Q     
--------------------------|---------------------|------------------------|
--------------------5-----|---------------------|----------------5-------|
-----4--5--4--5--7-----7--|-----------2----4----|--5--4--2--0-------4----|
--7-----------------------|---------------------|------------------------|
--------------------------|---------------------|------------------------|
--------------------------|---------------------|------------------------|


  H.           E  E     Q.     Q.     Q       E.  E.  E  E  E  E  E   
---------------------|---------------------|------5---7--------5--7--|
---------------3--5--|--3-------------3----|--5-------------5--------|
--5------------------|---------2-----------|-------------------------|
---------------------|---------------------|-------------------------|
---------------------|---------------------|-------------------------|
---------------------|---------------------|-------------------------|


  E  E  E  Q    E  E  E     E  E  E  Q    E  Q       E  E  E  Q    E  E  E   
--8--7--5-------5--------|--8--7--5--3----5-------|-------------------------|
-----------8-------5-----|-------------------3----|--5--3--1-------0--1-----|
-------------------------|------------------------|-----------2-------------|
-------------------------|------------------------|-------------------------|
-------------------------|------------------------|-------------------------|
-------------------------|------------------------|-------------------------|


  E  E  E  E  E  E  E  E     E  E  E  Q    E  Q       H.           E  E   
--------------------------|------------------------|---------------------|
--------------------3--5--|----------------5-------|---------------3--5--|
--5--4--2--4--4--5--------|--5--4--2--0-------4----|--5------------------|
--------------------------|------------------------|---------------------|
--------------------------|------------------------|---------------------|
--------------------------|------------------------|---------------------|


  Q.     Q.     Q       E.  E.  E  E  E  E  E     E  E  E  Q    E  E  E   
---------------------|------5---7--------5--7--|--8--7--5-------5--------|
--3-------------3----|--5-------------5--------|-----------8-------5-----|
---------2-----------|-------------------------|-------------------------|
---------------------|-------------------------|-------------------------|
---------------------|-------------------------|-------------------------|
---------------------|-------------------------|-------------------------|


  E  E  E  Q    E  Q       E  E  E  Q    E  E  E     E  E  E  E  E  E  E  E    
--8--7--5--3----5-------|-------------------------|--------------------------||
-------------------3----|--5--3--1----------------|--------------------3--5--||
------------------------|-----------2----4--5-----|--5--4--2--4--4--5--------||
------------------------|-------------------------|--------------------------||
------------------------|-------------------------|--------------------------||
------------------------|-------------------------|--------------------------||
Login or Register to remove this ad.