Login or Register to remove this ad.

Maple Dream (Touhou 3: Phantasmagoria of Dim. Dream) Bass/Guitar Tab

Submitted: Mar 25, 2012 by Jacob31593 (Last updated: Jun 01, 2012)

5
Average: 5 (1 vote)
Download | Listen
Game: Touhou 3: Phantasmagoria of Dim. Dream
Composer(s): ZUN
Style: 2 or more instruments, Alternate picking, Arrangement, Sweep picking, Transcription
Series: Touhou

This song is also called Credits

AutoScroll: Slow | Medium | Fast

Maple Dream from Touhou 3
Composed by ZUN
Tabbed by Jacob31593
March 25th 2012

Excluding the leady thing, this song is the same couple measures over and over again until measure 41 where everything suddenly shifts down a fret!

135BPM

Leady Thing

E||-------|-------|-------|-------|-------|-------|-------|-------|-------|-------|-------|-------|-------|-------|
B||-------|-------|-------|-------|-------|-------|-------|-------|-------|-------|-------|-------|-------|-------|
G||-------|-------|-------|-------|-------|-------|-------|-------|-------|-------|-------|-------|-------|-------|
D||-------|-------|-------|-------|-------|-------|-------|-------|-------|-------|-------|-------|-------|-------|
A||-------|-------|-------|-------|-------|-------|-------|-------|-------|-------|-------|-------|-------|-------|
E||-------|-------|-------|-------|-------|-------|-------|-------|-------|-------|-------|-------|-------|-------|


                                                                                   E   S  E   S  E   E   E  E  E   
-------|-------|-------|-------|-------|-------|-------|-------|-------|-------|----------------16----------------|
-------|-------|-------|-------|-------|-------|-------|-------|-------|-------|--14--14-16--16-----14---L--L--L--|
-------|-------|-------|-------|-------|-------|-------|-------|-------|-------|----------------------------------|
-------|-------|-------|-------|-------|-------|-------|-------|-------|-------|----------------------------------|
-------|-------|-------|-------|-------|-------|-------|-------|-------|-------|----------------------------------|
-------|-------|-------|-------|-------|-------|-------|-------|-------|-------|----------------------------------|


   E   S  E   S  E   E   E   E   E      E   S  E   S  E   E   E  E  E     E  E  E  E  E  E  E  E   
--14--14----------------------------|----------------------------------|--------------------------|
---------17--17-16------------------|----------------------------------|--------------------------|
--------------------16--16----------|--13--13--------13--13--13--L--L--|--L--L--------------------|
----------------------------16--16--|---------11--11-------------------|--------------------------|
------------------------------------|----------------------------------|--------------------------|
------------------------------------|----------------------------------|--------------------------|


   E   S  E   S  E   E   E  E  E      E   S  E   S  E   E  E   E  E      E.   E.   E  E  E  E  E   
----------------------------------|----------------------------------|----------------------------|
----------------------------------|----------------------------------|----------------------------|
----------------13----------------|--11--11--------------------------|----------------------------|
--11--11-13--13-----11--11--L--L--|---------14--14-13----------------|-------11---11--L--L--L--L--|
----------------------------------|--------------------14--L---------|--11------------------------|
----------------------------------|---------------------------14--L--|----------------------------|


  E  E  E  E  E  E  E  E                                                      E   E   E  E  E  E  E  E   
--------------------------|-----|-----|-----|-----|-----|-----|-----|-----|-----------------------------|
--------------------------|-----|-----|-----|-----|-----|-----|-----|-----|-----------------------------|
--------------------------|-----|-----|-----|-----|-----|-----|-----|-----|--12--12--12--L--L--L--L--L--|
--L-----------------------|-----|-----|-----|-----|-----|-----|-----|-----|-----------------------------|
--------------------------|-----|-----|-----|-----|-----|-----|-----|-----|-----------------------------|
--------------------------|-----|-----|-----|-----|-----|-----|-----|-----|-----------------------------|


   E   E   E   E  E  E   E   E      E   E   E   E   E   E      E      E      E   E   E   E   E   E   E   E   
--------------------------------|----------------------------------------|----------------------------------|
--------------------------------|--------------------------15g16--15g16--|--15--15--15------------------13--|
--------------------------------|--12--12--12--15--15--15----------------|--------------15--15--15--12------|
--10--10--10--12--L--L--13--15--|----------------------------------------|----------------------------------|
--------------------------------|----------------------------------------|----------------------------------|
--------------------------------|----------------------------------------|----------------------------------|


   E   E   E   E   E   E   E   E      E   E  E  E  E  E   E   E      E   E  E      E      E  E  E  E   
----------------------------------|------------------------------|------------------------------------|
----------------------------------|------------------------------|------------------------------------|
--12--12--12--10--10--10--12--12--|------------------------------|------------------------------------|
----------------------------------|--10--10--L--L--L--L--12--12--|--10--10-----12g13--12g13--L--L--L--|
----------------------------------|------------------------------|------------------------------------|
----------------------------------|------------------------------|------------------------------------|


      E     E.   E.   E   E.  E.      S  E  E  E  E  E  S E  E     E  S E  S E  E  E  E  E   
----------------------------------|-----------------------------|---------------------------|
----------------------------------|-----------------------------|---------------------------|
----------------------------------|-----------------------------|---------------------------|
--10g12--10g8---10----------------|-----------------------------|--8--8------8--8--L--L--L--|
---------------------10--13---8---|--10-10--L--L--L--L----------|-------8--8----------------|
----------------------------------|-----------------------------|---------------------------|


   E   E  E  E  E  E  E  E      E   E  E   E   E  E      E   E      E   S  E   S  E   E  E  E  E   
----------------------------|-----------------------------------|---------------------------------|
----------------------------|-----------------------------------|---------------------------------|
----------------------------|-------------------------------10--|--12--12-10--10------------------|
--10--10--L--L--L--L--L--L--|--10--10--L--12--12--L--12g13------|----------------10--10--L--L--L--|
----------------------------|-----------------------------------|---------------------------------|
----------------------------|-----------------------------------|---------------------------------|


     E  S E  S  E  E.  E.  E      T T  E  E  E  E  E  E  E  S     E   S  E   S  E   E   S  E   S  E   
------------------------------|-------------------------------|--------------------------------------|
------------------------------|-------------------------------|--------------------13--13------------|
--8g10--8-8--8----------------|-------------------------------|--12--12-10--10-12---------12--12-10--|
---------------12--8-------8--|-----8-------------------------|--------------------------------------|
-----------------------8------|--10---10--L--L--L--L--L--L--L-|--------------------------------------|
------------------------------|-------------------------------|--------------------------------------|


   E   S  E   S  E   E   S  E   S  E      E   S  E   S  E   E   S  E   S  E      S  E   S  E   S  E   E   S E   E   
--------------------------------------|--------------------------------------|-------------------------------------|
--------------------13--13------------|--------------------------------------|-------------------------------------|
--12--12-10--10-12---------12--12-10--|---------------------------12--12-----|-------------------------------------|
--------------------------------------|--13--13-12--12-13--10--10--------10--|--12-13--13-12--12-10----------------|
--------------------------------------|--------------------------------------|-----------------------13--13-8--13--|
--------------------------------------|--------------------------------------|-------------------------------------|


     E   S E  S  E   E   S  E   S E        E   S  E   S  E      E   S  E   S  E      T  T  T  E  E  E  E  E  E  E  T  
-------------------------------------|-------------------------------------------|-----------------------------------|
-------------------------------------|---------------------------------------11--|--11-13-11-13--L--L--L--L--L--L--L-|
-------------------------------------|--------------------------------12--12-----|-----------------------------------|
--------------------10--10-----------|-----------10--10-13--10g13--13------------|-----------------------------------|
--8g10--10-8--8-10---------10--10-8--|--8g10--10---------------------------------|-----------------------------------|
-------------------------------------|-------------------------------------------|-----------------------------------|


      E   S  S  E   E   E  S E  S E        E   S  E   S E   E   E  E  E        E   S  E   S  E   E   E  E  E   
-------------------------------------|-----------------------------------|------------------------------------|
--11g13--11-13-----11--11------------|-----------------------------------|------------------------------------|
---------------12----------8-7--7----|------------------8----------------|------------------------------------|
----------------------------------8--|--8g10--10-12--12----10--10--L--L--|--8g10--10-12--12-13----------------|
-------------------------------------|-----------------------------------|----------------------10--10--L--L--|
-------------------------------------|-----------------------------------|------------------------------------|


   E   E  E  E  E  E  E  E     E  E  E  E  E  E      E      E        E   S  E   S  E   E   E  E  E   
----------------------------|----------------------------------|------------------------------------|
----------------------------|----------------------------------|------------------------------------|
----------------------------|----------------------------------|------------------------------------|
--10--10--L--L--L--L--L--L--|--L--L--------------10g12--10g12--|--8g10--10-12--12-13--10--10--L--L--|
----------------------------|----------------------------------|------------------------------------|
----------------------------|----------------------------------|------------------------------------|


     E   S  E   S  E   E   E  E  E      E  E  E  E  E  E  E  E     E  E  E  E  E  E  E  E   
------------------------------------|---------------------------|--------------------------|
------------------------------------|---------------------------|--------------------------|
------------------------------------|---------------------------|--------------------------|
--8g10--10-12--12-13----------------|--10--L--L--L--L--L--L--L--|--L--L--L--L--------------|
----------------------10---L--L--L--|---------------------------|--------------------------|
------------------------------------|---------------------------|--------------------------|


  S S S S S S S S S S S S S S S S    S S S S S S S S S S S S S S S S    S S S S S S S S S S S S S S S S  
----------------------------------|----------------------------------|----------------------------------|
--------------------8-6-8---8---8-|--------------------8-6-8---8---8-|--------------------8-6-8---8---8-|
--5---5-7-8---8-7-5-------8---7---|--5---5-7-8---8-7-5-------8---7---|--5---5-7-8---8-7-5-------8---7---|
----------------------------------|----------------------------------|----------------------------------|
----------------------------------|----------------------------------|----------------------------------|
----------------------------------|----------------------------------|----------------------------------|


  S S S S S S S S S S S S S S S S    S S S S S S S S S S S S S S S S    S S S S S S S S S S S S S S S S  
----------------------------------|----------------------------------|----------------------------------|
--------------------8-6-8---8---8-|--------------------8-6-8---8---8-|--------------------8-6-8---8---8-|
--5---5-7-8---8-7-5-------8---7---|--5---5-7-8---8-7-5-------8---7---|--5---5-7-8---8-7-5-------8---7---|
----------------------------------|----------------------------------|----------------------------------|
----------------------------------|----------------------------------|----------------------------------|
----------------------------------|----------------------------------|----------------------------------|


  S S S S S S S S S S S S S S S S    S S S S S S S S S S S S S S S S    S S S S S S S S S S S S S S S S  
----------------------------------|----------------------------------|----------------------------------|
--------------------8-6-8---8---8-|--------------------8-6-8---8---8-|--------------------8-6-8---8---8-|
--5---5-7-8---8-7-5-------8---7---|--5---5-7-8---8-7-5-------8---7---|--5---5-7-8---8-7-5-------8---7---|
----------------------------------|----------------------------------|----------------------------------|
----------------------------------|----------------------------------|----------------------------------|
----------------------------------|----------------------------------|----------------------------------|


    S S S S S S S S S S S S S S S S    S S S S S S S S S S S S S S S S    S S S S S S S S S S S S S S S S  
|-----------------------------------|----------------------------------|----------------------------------|
|---------------------8-6-8---8---8-|--------------------8-6-8---8---8-|--------------------8-6-8---8---8-|
|*--5---5-7-8---8-7-5-------8---7---|--5---5-7-8---8-7-5-------8---7---|--5---5-7-8---8-7-5-------8---7---|
|*----------------------------------|----------------------------------|----------------------------------|
|-----------------------------------|----------------------------------|----------------------------------|
|-----------------------------------|----------------------------------|----------------------------------|


  S S S S S S S S S S S S S S S S    S S S S S S S S S S S S S S S S    S S S S S S S S S S S S S S S S  
----------------------------------|----------------------------------|----------------------------------|
--------------------8-6-8---8---8-|--------------------8-6-8---8---8-|--------------------8-6-8---8---8-|
--5---5-7-8---8-7-5-------8---7---|--5---5-7-8---8-7-5-------8---7---|--5---5-7-8---8-7-5-------8---7---|
----------------------------------|----------------------------------|----------------------------------|
----------------------------------|----------------------------------|----------------------------------|
----------------------------------|----------------------------------|----------------------------------|


  S S S S S S S S S S S S S S S S    S S S S S S S S S S S S S S S S      S S S S S S S S S S S S S S S S  
----------------------------------|-----------------------------------||----------------------------------|
--------------------8-6-8---8---8-|--------------------8-6-8---8---8--||--------------------8-6-8---8---8-|
--5---5-7-8---8-7-5-------8---7---|--5---5-7-8---8-7-5-------8---7---*||--5---5-7-8---8-7-5-------8---7---|
----------------------------------|----------------------------------*||----------------------------------|
----------------------------------|-----------------------------------||----------------------------------|
----------------------------------|-----------------------------------||----------------------------------|


  S S S S S S S S S S S S S S S S    S S S S S S S S S S S S S S S S    S S S S S S S S S S S S S S S S   
----------------------------------|----------------------------------|----------------------------------||
--------------------8-6-8---8---8-|--------------------8-6-8---8---8-|--------------------8-6-8---8---8-||
--5---5-7-8---8-7-5-------8---7---|--5---5-7-8---8-7-5-------8---7---|--5---5-7-8---8-7-5-------8---7---||
----------------------------------|----------------------------------|----------------------------------||
----------------------------------|----------------------------------|----------------------------------||
----------------------------------|----------------------------------|----------------------------------||

This is a track

     S S S S S S S S S S S S S S S S    S S S S S S  S S  S S  S  S S S S S  
E||--------------9---7---9-----------|--------------12---11---12--------9---|
B||--9-9-----9-9-----------7-----7---|--9-9-----9-9--------------12---------|
G||----------------------------------|--------------------------------------|
D||----------------------------------|--------------------------------------|
A||----------------------------------|--------------------------------------|
E||----------------------------------|--------------------------------------|
repeat a billion times, shift down a fret at measure 41

This is the next track
     S S S S S S S S S S S S S S S S  
E||----------------------------------|
B||--------------------9-7-9---9---9-|
G||--6---6-8-9---9-8-6-------9---8---|
D||----------------------------------|
A||----------------------------------|
E||----------------------------------|
repeat a billion times, shift down a fret at measure 41

Rhythm 

                                     Q    Q    Q    Q               Q    Q    Q    Q                                             
E||-------|-------|-------|-------|----------------------|-------|----------------------|-------|-------|-------|-------|-------|
B||-------|-------|-------|-------|----------------------|-------|----------------------|-------|-------|-------|-------|-------|
G||-------|-------|-------|-------|----------------------|-------|----------------------|-------|-------|-------|-------|-------|
D||-------|-------|-------|-------|--6----L----L----L----|-------|--6----L----L----L----|-------|-------|-------|-------|-------|
A||-------|-------|-------|-------|--4----L----L----L----|-------|--4----L----L----L----|-------|-------|-------|-------|-------|
E||-------|-------|-------|-------|--4----L----L----L----|-------|--4----L----L----L----|-------|-------|-------|-------|-------|


                                  E   E  E   E  E   E  E   E     E   E  E   E  E   E  E   E     E   E  E   E  E   E  E   E   
-------|-------|-------|-------|-----16-----16-----16-----16--|-----16-----16-----16-----16--|-----16-----16-----16-----16--|
-------|-------|-------|-------|-----14-----14-----14-----14--|-----14-----14-----14-----14--|-----14-----14-----14-----14--|
-------|-------|-------|-------|------------------------------|------------------------------|------------------------------|
-------|-------|-------|-------|------------------------------|------------------------------|------------------------------|
-------|-------|-------|-------|------------------------------|------------------------------|------------------------------|
-------|-------|-------|-------|------------------------------|------------------------------|------------------------------|


  E   E  E   E  E   E  E   E     E   E  E   E  E   E  E   E     E   E  E   E  E   E  E   E     E   E  E   E  E   E  E   E   
-----16-----16-----16-----16--|-----16-----16-----16-----16--|-----16-----16-----16-----16--|-----16-----16-----16-----16--|
-----14-----14-----14-----14--|-----14-----14-----14-----14--|-----14-----14-----14-----14--|-----14-----14-----14-----14--|
------------------------------|------------------------------|------------------------------|------------------------------|
------------------------------|------------------------------|------------------------------|------------------------------|
------------------------------|------------------------------|------------------------------|------------------------------|
------------------------------|------------------------------|------------------------------|------------------------------|


  E   E  E   E  E   E  E   E     E   E  E   E  E   E  E   E     E   E  E   E  E   E  E   E     E   E  E   E  E   E  E   E   
-----16-----16-----16-----16--|-----16-----16-----16-----16--|-----16-----16-----16-----16--|-----16-----16-----16-----16--|
-----14-----14-----14-----14--|-----14-----14-----14-----14--|-----14-----14-----14-----14--|-----14-----14-----14-----14--|
------------------------------|------------------------------|------------------------------|------------------------------|
------------------------------|------------------------------|------------------------------|------------------------------|
------------------------------|------------------------------|------------------------------|------------------------------|
------------------------------|------------------------------|------------------------------|------------------------------|


  E   E  E   E  E   E  E   E     E   E  E   E  E   E  E   E     E   E  E   E  E   E  E   E     E   E  E   E  E   E  E   E   
-----16-----16-----16-----16--|-----16-----16-----16-----16--|-----16-----16-----16-----16--|-----16-----16-----16-----16--|
-----14-----14-----14-----14--|-----14-----14-----14-----14--|-----14-----14-----14-----14--|-----14-----14-----14-----14--|
------------------------------|------------------------------|------------------------------|------------------------------|
------------------------------|------------------------------|------------------------------|------------------------------|
------------------------------|------------------------------|------------------------------|------------------------------|
------------------------------|------------------------------|------------------------------|------------------------------|


  E   E  E   E  E   E  E   E     E   E  E   E  E   E  E   E     E   E  E   E  E   E  E   E     E   E  E   E  E   E  E   E   
-----16-----16-----16-----16--|-----16-----16-----16-----16--|-----16-----16-----16-----16--|-----16-----16-----16-----16--|
-----14-----14-----14-----14--|-----14-----14-----14-----14--|-----14-----14-----14-----14--|-----14-----14-----14-----14--|
------------------------------|------------------------------|------------------------------|------------------------------|
------------------------------|------------------------------|------------------------------|------------------------------|
------------------------------|------------------------------|------------------------------|------------------------------|
------------------------------|------------------------------|------------------------------|------------------------------|


  E   E  E   E  E   E  E   E     E   E  E   E  E   E  E   E     E   E  E   E  E   E  E   E     E   E  E   E  E   E  E   E   
-----16-----16-----16-----16--|-----16-----16-----16-----16--|-----16-----16-----16-----16--|-----16-----16-----16-----16--|
-----14-----14-----14-----14--|-----14-----14-----14-----14--|-----14-----14-----14-----14--|-----14-----14-----14-----14--|
------------------------------|------------------------------|------------------------------|------------------------------|
------------------------------|------------------------------|------------------------------|------------------------------|
------------------------------|------------------------------|------------------------------|------------------------------|
------------------------------|------------------------------|------------------------------|------------------------------|


  E   E  E   E  E   E  E   E                        
-----16-----16-----16-----16--|
-----14-----14-----14-----14--|
------------------------------|
------------------------------|
------------------------------|
------------------------------|

begin playing this at measure 45
   S  S S S  S  S  S S  S S  S  S S S  S S     S  S S S  S  S  S S  S S  S  S S S  S S  
------------------20--------20-------------|------------------23---22---23--------20---|
--20-20-----20-20------23------18-----18---|--20-20-----20-20--------------23----------|
-------------------------------------------|-------------------------------------------|
-------------------------------------------|-------------------------------------------|
-------------------------------------------|-------------------------------------------|
-------------------------------------------|-------------------------------------------|

Bass

                                                             Q    Q    Q     E.   S  
G||-------|-------|-------|-------|-------|-------|-------|-------------------------|
D||-------|-------|-------|-------|-------|-------|-------|-------------------------|
A||-------|-------|-------|-------|-------|-------|-------|-----------------12s---6-|
E||-------|-------|-------|-------|-------|-------|-------|-------------------------|
B||-------|-------|-------|-------|-------|-------|-------|-------------------------|

and then start repeating this

  W                   W                   W                   H        Q    Q     
-------------------|-------------------|-------------------|---------------------|
-------------------|-------------------|-------------------|---------------------|
-------------------|-------------------|--4----------------|--4--------4----6----|
--5----------------|--7----------------|-------------------|---------------------|
-------------------|-------------------|-------------------|---------------------|


  W                   W                   W                   H        Q    Q     
-------------------|-------------------|-------------------|---------------------|
-------------------|--4----------------|-------------------|---------------------|
--7----------------|-------------------|--4----------------|--4--------L---------|
-------------------|-------------------|-------------------|----------------7----|
-------------------|-------------------|-------------------|---------------------|
shift down a fret at measure 41!

Duration Legend
---------------
W - whole
H - half
Q - quarter
E - 8th
S - 16th
T - 32nd
. - note dotted


Tablature Legend
----------------
L - tied note
g - grace note
s - legato slide
Login or Register to remove this ad.