End of Daylight (Touhou 2: Story of Eastern Wonderland) Guitar Tab

Submitted: Sep 11, 2014 by Bessem

5
Average: 5 (2 votes)
Download | Listen
Game: Touhou 2: Story of Eastern Wonderland
Composer(s): ZUN
Style: Arrangement, Fingerstyle, Percussion
Series: Touhou

AutoScroll: Slow | Medium | Fast
"It's night, but birds are singing... this really is a dawn song.
It really is a string song. I don't use guitars much, even for energetic songs.
I'd really like to make them go gyeeeeen sometime, but I don't use them, so."
 – ZUN

        End of Daylight                                         ‚y‚t‚m          


Bess
     ^                      ^                   ^                    
     Q    Q    Q    Q       W                   Q    Q    Q    Q     
E||--2--------------0----|-------------------|-----------------0----|
B||------------3---------|--0----------------|------------3---------|
G||-------4--------------|-------------------|--4-------------------|
D||--4-------------------|--0----------------|--2----2--------------|
A||--2-------------------|-------------------|--0-------------------|
E||----------------------|--3----------------|----------------------|


  ^                      ^                      ^                   
  Q    H        E  E     Q    Q    Q    Q       Q.     E  H         
----------------------|-------0---------2----|--3------5--0--------|
----------------------|------------0---------|---------------------|
--4-------------------|--4-------------------|---------------------|
--4----2--------L--4--|--4-------------------|--0------------------|
--2-------------------|--2-------------------|---------------------|
----------------------|----------------------|--3------------------|


  ^                       ^                    v                    
  Q.     E  Q    E  E     H.           Q       H        Q.     S S  
--3------5--0----7--5--|--0-----------------|----------------------|
-----------------------|--0------------3----|--0--------L--------3-|
-----------------------|--0-----------------|--0--------L------2---|
--2--------------------|--2-----------------|--0--------L----------|
--0--------------------|--2-----------------|--2--------L----------|
-----------------------|--0-----------------|--0--------L----------|


  H.           E  S S    H.           E  S S    W                 
----------------------|----------------------|-------------------|
--0------------L----3-|--0------------L----3-|--5----------------|
------------------2---|------------------2---|--4----------------|
--3------------L------|--4------------L------|--2----------------|
----------------------|----------------------|--2----------------|
--1------------L------|--2------------L------|--0----------------|


  E  E  E  E  E  E  E  E     E  E  E  E  E  E  E  E   
--------------------------|--------------------------|
--0-----------------------|--------------------------|
--------------------------|--------------------------|
--2--2-----2--2--2-----2--|--2--2-----2--2--2-----2--|
--2-----------------------|--------------------------|
--0--0--x-----------x-----|--------x-----------x-----|


  E  E  E  E  E  E  E  E     E  E  E  E  E  E  E  E   
--------------------------|--0-----------2-----3-----|
--------------------------|--------------------------|
--0-----------------------|--2-----------------------|
--------------------------|--0--0-----0--0--0-----0--|
--3--3-----3--3--3-----3--|--------------------------|
--------x-----------x-----|--------x-----------x-----|


  E  E  E  E  E  E  E  E     E  E  E  E  E  E  E  E   
--------------------------|--------------------------|
--0-----------------------|--------------------------|
--4-----------------------|--------------------------|
--2--2-----2--2--2-----2--|--2--2-----2--2--2-----2--|
--------------------------|--------------------------|
--0-----x-----------x-----|--------x-----------x-----|


  E  E  E  E  E  E  E  E     E  E  E  E  E  E  E  E   
--------------------------|--0-----------2-----3-----|
--------------------------|--------------------------|
--0-----------------------|--2-----------------------|
--------------------------|--0--0-----0--0--0-----0--|
--3--3-----3--3--3-----3--|--0-----------------------|
--------x-----------x-----|--------x-----------x-----|


  E  E  E  E  E  E  E  E     E  E  E  E  E  E  E  E   
--------------------------|--------------------------|
--0-----------------------|--------------------------|
--------------------------|--------------------------|
--2-----------------------|--------------------------|
--2-----------------------|--------------------------|
--0--0--x--0--0--0--x--0--|--0--0--x--0--0--0--x--0--|


  E  E  E  E  E  E  E  E     E  E  E  E  E  E  E  E   
--------------------------|--0-----------2-----3-----|
--------------------------|--------------------------|
--0-----------------------|--2-----------------------|
--------------------------|--0-----------------------|
--3-----------------------|--0--0-----0--0--0-----0--|
--3--3--x--3--3--3--x--3--|--------x-----------x-----|


  E  E  E  E  E  E  E  E     E  E  E  E  E  E  E  E   
--------------------------|--------------------------|
--0-----------------------|--------------------------|
--4-----------------------|--------------------------|
--2-----------------------|--------------------------|
--------------------------|--------------------------|
--0--0--x--0--0--0--x--0--|--0--0--x--0--0--0--x--0--|


  E  E  E  E  E  E  E  E     E  E  E  E  E  E  E  E     E  E  H        E  E   
--------------------------|--0-----------2-----3-----|--2--0-----------------|
--------------------------|--------------------------|--------0-----------0--|
--0-----------------------|--2-----------------------|--0--------------2-----|
--------------------------|--0-----------------------|-----------------------|
--3-----------------------|--0--0--x--0--0--0--x--0--|--3--------------------|
--3--3--x--3--3--3--x--3--|--------------------------|-----------------------|


  E  E  Q    Q    Q       Q    E  E  Q    Q       Q    E  E  Q    E  E   
--2--0-----------------|--0--------------------|------------------------|
--------0---------0----|--0----0-----0---------|--0---------------------|
--2----------2---------|----------2------------|------------------2-----|
--0--------------------|--2---------------2----|--2---------------0--4--|
-----------------------|-----------------------|-------2--0--2----------|
-----------------------|--0--------------------|--0---------------------|


  Q    E  E  E  E  E  E     E  E  E  E  E  E  E  E     E  E  E  E  E  E  E  E   
-------------0--------0--|--------0--------0--------|--0-----------------------|
--0-------0--------0-----|-----0--------0--------0--|--0-----0--3--------------|
--0----2--------2--------|--2--------2--------2-----|-----2--------0--2--------|
-------------------------|--0-----------------------|--2-----------------4--0--|
--3----------------------|--------------------------|--------------------------|
-------------------------|--------------------------|--------------------------|


  E  E  E  E  E  E  E  E     E  E  E  E  E  E  E  E   
--------------------------|--------------------------|
--------------------------|--------------------------|
--4-----------------2--L--|--0--L--------------------|
--2--------0--------0--L--|--------------------2--4--|
-----0--2--------0--------|--3--2-----------2--------|
--------------3-----2-----|--0-----0--2--3-----------|


  E  E  E  E  E  E  E  E     E  E  E  E  E  E  E  E   
--------0--2--3--2--0-----|--------0--------0--------|
-----0-----------------0--|--0--0--------0--------0--|
--0-----------------------|--2--------2--------2-----|
--7-----------------------|--2-----------------------|
--5-----------------------|--------------------------|
--------------------------|--------------------------|


  E  E  E  E  E  E  E  E     Q    E  E  E  E  E  E     E  E  E  E  E  E  E  E   
--0--------0--------0-----|-------------------------|--------0--2--3--2--0-----|
--0-----0--------0--------|-------------0--------0--|-----0-----------------0--|
-----2--------2-----2-----|--0----------------------|--2-----------------------|
--2-----------------0--4--|--4----2--4-----2--4-----|--2-----------------------|
--------------------------|--3----------------------|--5-----------------------|
--------------------------|-------------------------|--------------------------|


  E  E  E  E  E  E  E  E     E  E  E  E  E  E  Q       W                 
--------0--------0--------|--0--------0--------0----|-------------------|
--0--0--------0--------0--|--0-----0--------0-------|--0----------------|
--2--------2--------2-----|-----2--------2-----2----|--0----------------|
--2-----------------------|--2-----------------0----|-------------------|
--------------------------|-------------------------|--3----------------|
--------------------------|-------------------------|-------------------|


  H        Q    Q       W                   H        Q    Q     
---------------------|-------------------|--0--------0----2----|
----------------3----|--0----------------|--0------------------|
--2--------2---------|-------------------|----------------2----|
--0------------------|--2----------------|----------------0----|
---------------------|-------------------|---------------------|
---------------------|-------------------|--0------------------|


                                            ^                 
  H        H           H        H           W                 
--3-----------------|--5-----------------|--7----------------|
-----------0--------|--------------------|--0----------------|
--0-----------------|-----------7--------|-------------------|
--------------------|--7-----------------|-------------------|
--3-----------------|--5-----------------|--7----------------|
--------------------|--------------------|-------------------|


  H        Q    Q       H        H           H        H         
-----------3----5----|--7--------0--------|-----------5--------|
--0--------5----7----|--8--------8--------|--7--------7--------|
---------------------|--0-----------------|--7-----------------|
--2-------------7----|--------------------|--7-----------------|
----------------5----|--------------------|--5-----------------|
---------------------|--8-----------------|--------------------|


  Q.     E  H           H        Q    Q       H        H         
---------------------|---------------------|--3-----------------|
--0------0--0--------|--0--------5----7----|--5--------0--------|
--2------0--0--------|-----------4----7----|-----------0--------|
--4------------------|--2-------------7----|--5-----------------|
--7------------------|----------------5----|--3-----------------|
---------------------|---------------------|--------------------|


  H        H           W                   W                 
--5-----------------|-------------------|-------------------|
--7--------7--------|--9----------------|--0----------------|
-----------7--------|--9----------------|-------------------|
--7-----------------|--9----------------|--2----------------|
--5-----------------|--7----------------|-------------------|
--------------------|-------------------|-------------------|
Login or Register to remove this ad.

3 comments on End of Daylight

Finally an arrangement with a

Finally an arrangement with a percussion part that isn't too hard for me!
(Assuming that that is what you were indicating with "x", if not, it's still quite fun to play it that way)

Re : Finally an arrangement with a

The "x" means you have to block your strings or tap on your guitar
play it as you like since we can reconize it
i hope we will have a cover from you next weeks :D

Of corse

The "x" means you have to block your strings or tap on your guitar
play it as you like since we can reconize it
i hope we will have a cover from you next weeks :D