Ads

Ghost Lead (Touhou 13: Ten Desires) Guitar Tab

Submitted: Dec 05, 2013 by madmanadam1 (Last updated: Dec 15, 2013)

5
Average: 5 (4 votes)
Download | Listen
Game: Touhou 13: Ten Desires
Composer(s): ZUN
Style: Arrangement, Fingerstyle
Series: Touhou

AutoScroll: Slow | Medium | Fast
     E  E  E  E  E  E  E  S S    E  E  E  E  Q    S E  S  
E||---------------------------|--------------------------|
B||---------------------------|--------------------------|
G||--2-----------1----------1-|--2--------5--4------2--0-|
D||--------3-----------0--3---|--------3--5--5-----------|
A||-----0-----0-----0---------|-----0--------------------|
D||--0-----------0------------|--0--------0--0----2------|


  Q    Q    Q    S E  S    E  E  E  E  T T T T E  E  T T T T  
------------------------|------------------------------------|
------------1-----------|--------------------1-3-----------1-|
--2---------2-----------|--------------2-0-2---------2-0-2---|
--3----3----2------0--2-|--3---------------------------------|
--1---------0-----------|------------------------------------|
------------------------|--0--0--0--0--0-------0--0--0-------|


  Q    Q    E  E  E  E     E  E  E  E  E.  S E  S S    Q    Q    Q    E  E   
---------------------0--|--1--0-----0--1---3-0------|--------------------1--|
--3----1----3-----------|--------3--1-------------1-|--3----1---------------|
-------0----2--------2--|--2--0-----0--2---2-0--2---|--2---------2-------2--|
--3----2----3-----------|--------3------------------|--3---------2----------|
---------------0--------|--------0-----1-----0------|--1---------0----3-----|
--0---------0-----0--2--|--3--------0---------------|-----------------------|


  E  E  E  E  Q    S S S S    Q    Q    E  E  E  E   
--0------------------------|---------------------0--|
-----3--1-----3------------|--3----1----3-----------|
--0--------2--2------------|--2----0----2--------2--|
-----3--2--2--0--------0---|--3----2----3-----------|
---------------------0---0-|------------0-----0-----|
--5--3--2--3--0----0-------|--0------------0-----0--|


  E  E  E  E  E.  S E  S S    Q    Q    Q.     E     E  E  E  E  E  E  E  E   
--1--0-----0--1---3-0------|-------------------1--|--0-----------------------|
--------3--1-------------1-|--3----1--------------|-----3--1-----3-----------|
--2--0-----0--2---2-0--2---|--2----2----2------2--|--0--------2--2-----------|
--------3------------------|--3---------3---------|-----3--2-----0-----------|
--------------0------------|----------------------|--1-----3-----0-----------|
--2-----3-----------5------|--0----2----0---------|--------------0--0--0--0--|


   E  E  E  E  E  E  E  S S     E  E  E  E  E  E  S S S S  
----------------------------|------------8--7-------------|
--10-----6-----9--------6-9-|--10-----6--8--8-------------|
---7-----7-----7-----9------|---7-----7-------------2---0-|
---------0-----------6------|---------5-------------------|
------0-----0-----0-----0---|------0-----0-----0----------|
---0-----------0------------|---0-----------5-----5---2---|


  E  E  E  E  E  E  S S S S    E  E  E  E  S S S S S S S S  
--------------0-------------|--------------------1---------|
--------3-----1-------------|------------------1---1-------|
--2-----------0-------------|----------------1-------1---1-|
--3-----3-----2-------0---2-|--3-----------3-----------3---|
--1--1--1--1--3--3--3---3---|------------------------------|
----------------------------|--0--0--0--0--0---0---0---0---|


  Q    Q    Q    E  S S    Q    E  E  Q    S E  S    E  E  E  E  E  E  S S S S  
------------------------|-------------------------|--1-----1-----3-------------|
------------------------|----------4--3------1----|--1-----1-----1-------------|
--5----1----4-------1-4-|--5----1-----3---------3-|--------1-----0-----------0-|
--3----3----3-----------|--6----3-----3-----------|----------------------3-----|
-------3---------3------|-------3-----1-----------|--4--4--4--4----------------|
--3---------3-----------|--3----------------------|--------------1--1--1---1---|


  E  E  E  E  T T T T E  Q       Q    Q    Q    E  E   
----------------------1--L----|-----------------------|
--------------1---1-4---------|--6----4----6-------8--|
--1-------------3-------------|--5----3----5-------8--|
------------------------------|--6----5----6-------8--|
------------------------------|-------3---------------|
--3--3--3--3------------------|--3---------3----3-----|


   E   E  E  E  E  S S E  S S     E  E   E   E  E  E  E  E   
---------------------6--------|--------------------------4--|
---9---8--6--8--9------8----4-|---9------8------6-----------|
--10---8--6--8--8---------5---|--10------8------------------|
------------------------------|--10------8------6-----------|
--11--10--8--6---------6--6---|---8--8--10--10--8--8--8-----|
----------------6--6----------|--------------------------3--|


  E  E  E  E  E  E  E  E     E  E  E  E  E  E  E  E   
--3--1--------------------|--------------------------|
--2-----4--1--6-----------|--6-----4-----6--------8--|
--------3--3--5--------3--|--5-----3-----5--------8--|
--------------------------|--6-----5-----6-----------|
--4--------------1--3-----|--------------------------|
--------1-----3--------1--|--3--3--3--3--3--3--3--5--|


  E  E  E   E  S   S Q.        E.  E.  E  E.  E.  E   
--4--6--8--11--8h-11-8------|--8-------8--8-------4--|
--4--4--6---6--8-----8------|--6---6------6----------|
--5--5--8---8--8-----8------|--8----------8---8------|
----------------------------|------------------------|
--4--4--6---6--8-----8------|--4----------6----------|
----------------------------|------------------------|


  E  E  E  E  E  E  E  E       S S S S S S S S S S S S S S S S S S S  S  S S  
--3------------------------||------------------------------------------------|
--4--6--4--1--6------------||--------1-----------1-----------1---------------|
--------1--1--5-----------*||----0-2---2-0---0-2---2-0---0-2---2-0-----------|
--------------------------*||--0-----------0-----------0-----------2h-3p-2---|
--4------------------------||----------------------------------------------3-|
--------1-----3--3--3--3---||--0---0---0---0---0---0---0---0---0---0-----0---|


  S S S S S S S S S S S S S S S S S S S  S  S S  
------------------------------------------------|
--------1-----------1-----------1-----5h-6p-5---|
----0-2---2-0---0-2---2-0---0-2---2-0---------5-|
--0-----------0-----------0---------------------|
------------------------------------------------|
--0---0---0---0---0---0---0---0---0---0-----0---|


  S S S S S S S S S S S S S S S S S S S  S  S S  
------------------------------------------------|
--------1-----------1-----------1-----5h-6p-5---|
----0-2---2-0---0-2---2-0---0-2---2-0---------5-|
--0-----------0-----------0---------------------|
--1---1---1---1---1---1---1---1---1---0-----0---|
------------------------------------------------|


  S S S S S S S S S S S S S S S S S S S  S  S S  
------------------------------------------------|
--------1-----------1-----------1-----5h-6p-5---|
----0-2---2-0---0-2---2-0---0-2---2-0---------5-|
--0-----------0-----------0---------------------|
--1---1---1---1---1---1---1---1---1---3-----3---|
------------------------------------------------|


  S S S S S S S S S S S S S S S S S S S  S  S S  
------------------------------------------------|
--------1-----------1-----------1---------------|
----0-2---2-0---0-2---2-0---0-2---2-0-----------|
--0-----------0-----------0-----------2h-3p-2---|
----------------------------------------------3-|
--0---0---0---0---0---0---0---0---0---0-----0---|


  S S S S S S S S S S S S S S S S S S S  S  S S  
------------------------------------------------|
--------1-----------1-----------1-----5h-6p-5---|
----0-2---2-0---0-2---2-0---0-2---2-0---------5-|
--0-----------0-----------0---------------------|
------------------------------------------------|
--0---0---0---0---0---0---0---0---0---0-----0---|


  S S S S S S S S S S S S S S S S S S S  S  S S  
------------------------------------------------|
--------1-----------1-----------1-----5h-6p-5---|
----0-2---2-0---0-2---2-0---0-2---2-0---------5-|
--0-----------0-----------0---------------------|
--1---1---1---1---1---1---1---1---1---0-----0---|
------------------------------------------------|


  S S S S S S S S S S S S S S S S S S S S S S    W                  
----------------------------------------------|-------------------||
--------1-----------1-----------1-----5-6-5---|-------------------||
----0-2---2-0---0-2---2-0---0-2---2-0-------5-|--L----------------||
--0-----------0-----------0-------------------|-------------------||
--1---1---1---1---1---1---1---1---1---3---3---|-------------------||
----------------------------------------------|-------------------||




Duration Legend
---------------
W - whole
H - half
Q - quarter
E - 8th
S - 16th
T - 32nd
X - 64th
. - note dotted
|-n-|  - n-tuplets


Tablature Legend
----------------
L - tied note
x - dead note
g - grace note
(n) - ghost note
> - accentuded note
NH - natural harmonic
AH - artificial harmonic
TH - tapped harmonic
SH - semi harmonic
PH - pitch harmonic
h - hammer on
p - pull off
b - bend
br - bendRelease
pb - preBend
pbr - preBendRelease
brb - bendReleaseBend
\n/ - tremolo bar dip
\n - tremolo bar dive
-/n - tremolo bar Release up
/n\ - tremolo bar inverted dip
/n - tremolo bar return
-\n - tremolo bar Release down
S - shift slide
s - legato slide
/ -  slide into from below or out of upwards
\ -  slide into from above or out of downwards
~ - vibrato
W - wide vibrato
tr - trill
TP - tremolo picking
T - tapping
S - slap
P - pop
< - fade in
^ - brush up
v - brush down
Login or Register to remove this ad.

1 comment on Ghost Lead

This was cool!

This was cool!