Heian Alien (Touhou 12: Undefined Fantastic Object) Guitar Tab

Submitted: Dec 26, 2016 by Bessem (Last updated: Dec 26, 2016)

5
Average: 5 (1 vote)
Download | Listen
Game: Touhou 12: Undefined Fantastic Object
Composer(s): ZUN
Style: Arrangement, Fingerstyle
Series: Touhou

This song is also called Nue Houjuu's Theme

Click here for a video example.

AutoScroll: Slow | Medium | Fast
Piste 1
     E  E  E  E  E  E  E  E     E  E  E  E  E  E  E  E   
E||-----------0-----------0--|-----------0-----------0--|
B||--------------------------|--------------------------|
G||--------2-----------3-----|--------4-----------3-----|
D||-----0-----------0--------|-----0-----------0--------|
A||--0-----------1-----------|--2-----------1-----------|
E||--------------------------|--------------------------|


  E  E  E  E  E  E  E  E     E  E  E  E  E  E  E  E     Q    Q    Q    Q     
-----------0-----------0--|-----------0-----------0--|-------0--------------|
--------------------------|--------------------------|------------4---------|
--------2-----------3-----|--------4-----------3-----|--2--------------4----|
-----0-----------0--------|-----0-----------0--------|----------------------|
--0-----------1-----------|--2-----------1-----------|--0---------2---------|
--------------------------|--------------------------|----------------------|


  Q    Q    Q    Q       Q    Q    E  E  Q       Q    Q    H         
----------------------|-------0----------3----|--2------------------|
--3----1----0---------|---------------5-------|-------4----5--------|
-----------------3----|--2---------5----------|---------------------|
----------------------|-----------------------|---------------------|
--1--------------1----|--0---------3----------|--2----1----0--------|
----------------------|-----------------------|---------------------|


  Q    Q    Q    Q       Q    Q    Q    Q       Q    Q    E  E  Q     
-------0--------------|----------------------|-------0----------3----|
------------4---------|--3----1----0---------|---------------5-------|
--2--------------4----|-----------------3----|--2---------5----------|
----------------------|----------------------|-----------------------|
--0---------2---------|--1--------------1----|--0---------3----------|
----------------------|----------------------|-----------------------|


  Q    Q    H          
--2------------------||
-------4----5--------||
---------------------||
---------------------||
--2----1----0--------||
---------------------||
Login or Register to remove this ad.