Fires of Hokkai (Touhou 12: Undefined Fantastic Object) Guitar Tab

Submitted: Apr 02, 2012 by Jacob31593 (Last updated: Jun 01, 2012)

5
Average: 5 (1 vote)
Download | Listen
Game: Touhou 12: Undefined Fantastic Object
Composer(s): ZUN
Style: 2 or more instruments, Alternate picking, Arrangement, Sweep picking, Transcription
Series: Touhou

This song is also called Stage 6 Theme

AutoScroll: Slow | Medium | Fast

Fires of Hokkai from Touhou 12
Composed by ZUN
Tabbed by Jacob31593
April 2nd 2012

I hope this tab isnt insultingly bad to anyone :E

175BPM

Lead

                                                                       W                   W                                     
E||--------|-------|-------|-------|-------|-------|-------|-------|--------------------|-------------------|-------------------|
B||--------|-------|-------|-------|-------|-------|-------|-------|--17----------------|--L----------------|-------------------|
G||*-------|-------|-------|-------|-------|-------|-------|-------|--------------------|-------------------|-------------------|
D||*-------|-------|-------|-------|-------|-------|-------|-------|--------------------|-------------------|-------------------|
A||--------|-------|-------|-------|-------|-------|-------|-------|--------------------|-------------------|-------------------|
E||--------|-------|-------|-------|-------|-------|-------|-------|--------------------|-------------------|-------------------|


                       W                   W                                                            W                 
-------------------|--------------------|-------------------|-------------------|-------------------|--15----------------|
-------------------|--17----------------|--L----------------|-------------------|-------------------|--17----------------|
-------------------|--------------------|-------------------|-------------------|-------------------|--------------------|
-------------------|--------------------|-------------------|-------------------|-------------------|--------------------|
-------------------|--------------------|-------------------|-------------------|-------------------|--------------------|
-------------------|--------------------|-------------------|-------------------|-------------------|--------------------|


  W                                                            W                   W                                     
--L----------------|-------------------|-------------------|--15----------------|--L----------------|-------------------|
--L----------------|-------------------|-------------------|--17----------------|--L----------------|-------------------|
-------------------|-------------------|-------------------|--------------------|-------------------|-------------------|
-------------------|-------------------|-------------------|--------------------|-------------------|-------------------|
-------------------|-------------------|-------------------|--------------------|-------------------|-------------------|
-------------------|-------------------|-------------------|--------------------|-------------------|-------------------|


                       W                   W                   W                    H         H            W                 
-------------------|--19----------------|--L----------------|--L----------------|--17--------22--------|--------------------|
-------------------|--------------------|-------------------|-------------------|----------------------|--17----------------|
-------------------|--------------------|-------------------|-------------------|----------------------|--------------------|
-------------------|--------------------|-------------------|-------------------|----------------------|--------------------|
-------------------|--------------------|-------------------|-------------------|----------------------|--------------------|
-------------------|--------------------|-------------------|-------------------|----------------------|--------------------|


  W                   W                    H         H            W                   W                   W                 
-------------------|-------------------|------------17--------|--19----------------|--L----------------|--L----------------|
--L----------------|--L----------------|--19------------------|--------------------|-------------------|-------------------|
-------------------|-------------------|----------------------|--------------------|-------------------|-------------------|
-------------------|-------------------|----------------------|--------------------|-------------------|-------------------|
-------------------|-------------------|----------------------|--------------------|-------------------|-------------------|
-------------------|-------------------|----------------------|--------------------|-------------------|-------------------|


   H         H            W                   W                   W                    H         H            W                 
--17--------22--------|--------------------|-------------------|-------------------|------------17--------|--19----------------|
----------------------|--17----------------|--L----------------|--L----------------|--19------------------|--------------------|
----------------------|--------------------|-------------------|-------------------|----------------------|--------------------|
----------------------|--------------------|-------------------|-------------------|----------------------|--------------------|
----------------------|--------------------|-------------------|-------------------|----------------------|--------------------|
----------------------|--------------------|-------------------|-------------------|----------------------|--------------------|


  W                   W                    H         H            W                   W                   W                 
--L----------------|--L----------------|--17--------22--------|--------------------|-------------------|-------------------|
-------------------|-------------------|----------------------|--17----------------|--L----------------|--L----------------|
-------------------|-------------------|----------------------|--------------------|-------------------|-------------------|
-------------------|-------------------|----------------------|--------------------|-------------------|-------------------|
-------------------|-------------------|----------------------|--------------------|-------------------|-------------------|
-------------------|-------------------|----------------------|--------------------|-------------------|-------------------|


   H         H            W                   W                   W                    H         H            W                 
------------17--------|--19----------------|--L----------------|--L----------------|--17--------22--------|--------------------|
--19------------------|--------------------|-------------------|-------------------|----------------------|--17----------------|
----------------------|--------------------|-------------------|-------------------|----------------------|--------------------|
----------------------|--------------------|-------------------|-------------------|----------------------|--------------------|
----------------------|--------------------|-------------------|-------------------|----------------------|--------------------|
----------------------|--------------------|-------------------|-------------------|----------------------|--------------------|


  W                   W                   H        H                                                                     
-------------------|-------------------|--------------------|-----------|-----------|-----------|-----------|-----------|
--L----------------|--L----------------|--------------------|-----------|-----------|-----------|-----------|-----------|
-------------------|-------------------|--------------------|-----------|-----------|-----------|-----------|-----------|
-------------------|-------------------|--------------------|-----------|-----------|-----------|-----------|-----------|
-------------------|-------------------|--------------------|-----------|-----------|-----------|-----------|-----------|
-------------------|-------------------|--------------------|-----------|-----------|-----------|-----------|-----------|


-----------|-----------|-----------|-----------|-----------|-----------|-----------|-----------|-----------|-----------|
-----------|-----------|-----------|-----------|-----------|-----------|-----------|-----------|-----------|-----------|
-----------|-----------|-----------|-----------|-----------|-----------|-----------|-----------|-----------|-----------|
-----------|-----------|-----------|-----------|-----------|-----------|-----------|-----------|-----------|-----------|
-----------|-----------|-----------|-----------|-----------|-----------|-----------|-----------|-----------|-----------|
-----------|-----------|-----------|-----------|-----------|-----------|-----------|-----------|-----------|-----------|


------------||
------------||
-----------*||
-----------*||
------------||
------------||


Boo Dee Doo, Boot Doot - Deet Doot
Boo Dee Doo, Boot Doot - Deet Doot

E||--------|-------|-------|-------|-------|-------|-------|-------|-------|-------|-------|-------|-------|-------|-------|
B||--------|-------|-------|-------|-------|-------|-------|-------|-------|-------|-------|-------|-------|-------|-------|
G||*-------|-------|-------|-------|-------|-------|-------|-------|-------|-------|-------|-------|-------|-------|-------|
D||*-------|-------|-------|-------|-------|-------|-------|-------|-------|-------|-------|-------|-------|-------|-------|
A||--------|-------|-------|-------|-------|-------|-------|-------|-------|-------|-------|-------|-------|-------|-------|
E||--------|-------|-------|-------|-------|-------|-------|-------|-------|-------|-------|-------|-------|-------|-------|


-------|-------|-------|-------|-------|-------|-------|-------|-------|-------|-------|-------|-------|-------|-------|-------|
-------|-------|-------|-------|-------|-------|-------|-------|-------|-------|-------|-------|-------|-------|-------|-------|
-------|-------|-------|-------|-------|-------|-------|-------|-------|-------|-------|-------|-------|-------|-------|-------|
-------|-------|-------|-------|-------|-------|-------|-------|-------|-------|-------|-------|-------|-------|-------|-------|
-------|-------|-------|-------|-------|-------|-------|-------|-------|-------|-------|-------|-------|-------|-------|-------|
-------|-------|-------|-------|-------|-------|-------|-------|-------|-------|-------|-------|-------|-------|-------|-------|


                                                                           E   E   E  E    E   E   E   E   
-------|-------|-------|-------|-------|-------|-------|-------|-------|--19--22--17-----(22)-----17--19--|
-------|-------|-------|-------|-------|-------|-------|-------|-------|----------------------------------|
-------|-------|-------|-------|-------|-------|-------|-------|-------|----------------------------------|
-------|-------|-------|-------|-------|-------|-------|-------|-------|----------------------------------|
-------|-------|-------|-------|-------|-------|-------|-------|-------|----------------------------------|
-------|-------|-------|-------|-------|-------|-------|-------|-------|----------------------------------|


  E   E   E  E  E  E   E   E      E   E   E  E  E  E   E   E     E   E   E  E  E  E   E   E      E   E   E  E  E  E   E   E   
-----22--17-----------17--19--|--19--22--17-----------17--19--|-----22--17-----------17--19--|--19--22--17-----------17--19--|
------------------------------|-------------------------------|------------------------------|-------------------------------|
------------------------------|-------------------------------|------------------------------|-------------------------------|
------------------------------|-------------------------------|------------------------------|-------------------------------|
------------------------------|-------------------------------|------------------------------|-------------------------------|
------------------------------|-------------------------------|------------------------------|-------------------------------|


  E   E   E  E  E  E   E   E      E   E   E  E  E  E   E   E     E   E   E  E  E  E   E   E      E  E  E   E  E  E   E  E   
-----22--17-----------17--19--|--19--22--17-----------17--19--|-----22--17-----------17--19--|--19--------22--------19-----|
------------------------------|-------------------------------|------------------------------|-----------------------------|
------------------------------|-------------------------------|------------------------------|-----------------------------|
------------------------------|-------------------------------|------------------------------|-----------------------------|
------------------------------|-------------------------------|------------------------------|-----------------------------|
------------------------------|-------------------------------|------------------------------|-----------------------------|


  E   E  E  E   E  E   E  E      E  E  E   E  E  E   E  E     E   E  E  E   E  E   E  E      E  E  E   E  E  E   E  E   
-----22--------19-----22-----|--19--------22--------19-----|-----22--------19-----24-----|--19--------22--------19-----|
-----------------------------|-----------------------------|-----------------------------|-----------------------------|
-----------------------------|-----------------------------|-----------------------------|-----------------------------|
-----------------------------|-----------------------------|-----------------------------|-----------------------------|
-----------------------------|-----------------------------|-----------------------------|-----------------------------|
-----------------------------|-----------------------------|-----------------------------|-----------------------------|


  E   E  E  E   E  E   E  E      E  E  E   E  E  E   E  E     E   E  E  E   E  E   E   E      E  E  E   E  E  E   E  E   
-----22--------19-----22-----|--19--------22--------19--L--|--L--17--L--L---L--L----------|------------23---------------|
-----------------------------|-----------------------------|----------------------17--19--|--21------------------21-----|
-----------------------------|-----------------------------|------------------------------|-----------------------------|
-----------------------------|-----------------------------|------------------------------|-----------------------------|
-----------------------------|-----------------------------|------------------------------|-----------------------------|
-----------------------------|-----------------------------|------------------------------|-----------------------------|


  E   E  E  E   E  E   E  E      E  E  E   E  E  E   E  E     E   E  E  E   E  E   E  E      E  E  E   E  E  E   E  E   
-----23---------------19-----|------------23---------------|-----23---------------21-----|------------23---------------|
---------------21------------|--21------------------21-----|---------------21------------|--21------------------21-----|
-----------------------------|-----------------------------|-----------------------------|-----------------------------|
-----------------------------|-----------------------------|-----------------------------|-----------------------------|
-----------------------------|-----------------------------|-----------------------------|-----------------------------|
-----------------------------|-----------------------------|-----------------------------|-----------------------------|


  E   E  E  E   E  E   E  E      E  E  E   E  E  E   E  E     E   E  E  E  E  E   E   E      E  E  E   E  E  E   E  E   
-----23---------------19-----|------------23---------------|-----------------------------|------------23---------------|
---------------21------------|--21------------------21--L--|--L--19--L--L--L--L--17--19--|--21------------------21-----|
-----------------------------|-----------------------------|-----------------------------|-----------------------------|
-----------------------------|-----------------------------|-----------------------------|-----------------------------|
-----------------------------|-----------------------------|-----------------------------|-----------------------------|
-----------------------------|-----------------------------|-----------------------------|-----------------------------|


  E   E  E  E   E  E   E  E      E  E  E   E  E  E   E  E     E   E  E  E   E  E   E  E      E  E  E   E  E  E   E  E   
-----23---------------19-----|------------23---------------|-----23---------------21-----|------------23---------------|
---------------21------------|--21------------------21-----|---------------21------------|--21------------------21-----|
-----------------------------|-----------------------------|-----------------------------|-----------------------------|
-----------------------------|-----------------------------|-----------------------------|-----------------------------|
-----------------------------|-----------------------------|-----------------------------|-----------------------------|
-----------------------------|-----------------------------|-----------------------------|-----------------------------|


  E   E  E  E   E  E   E  E      E  E  E   E  E  E   E  E     E   E  E  E  E  E   E   E     
-----23---------------19-----|------------23---------------|------------------------------||
---------------21------------|--21------------------21--L--|--L--19--L--L--L--L---L---L---||
-----------------------------|-----------------------------|-----------------------------*||
-----------------------------|-----------------------------|-----------------------------*||
-----------------------------|-----------------------------|------------------------------||
-----------------------------|-----------------------------|------------------------------||


Bwop Wop Wop, Bwop Wop - Wop Wop
Bwop Wop Wop, Bwop Wop - Wop Wop

E||--------|-------|-------|-------|-------|-------|-------|-------|-------|-------|-------|-------|-------|-------|-------|
B||--------|-------|-------|-------|-------|-------|-------|-------|-------|-------|-------|-------|-------|-------|-------|
G||*-------|-------|-------|-------|-------|-------|-------|-------|-------|-------|-------|-------|-------|-------|-------|
D||*-------|-------|-------|-------|-------|-------|-------|-------|-------|-------|-------|-------|-------|-------|-------|
A||--------|-------|-------|-------|-------|-------|-------|-------|-------|-------|-------|-------|-------|-------|-------|
E||--------|-------|-------|-------|-------|-------|-------|-------|-------|-------|-------|-------|-------|-------|-------|


-------|-------|-------|-------|-------|-------|-------|-------|-------|-------|-------|-------|-------|-------|-------|-------|
-------|-------|-------|-------|-------|-------|-------|-------|-------|-------|-------|-------|-------|-------|-------|-------|
-------|-------|-------|-------|-------|-------|-------|-------|-------|-------|-------|-------|-------|-------|-------|-------|
-------|-------|-------|-------|-------|-------|-------|-------|-------|-------|-------|-------|-------|-------|-------|-------|
-------|-------|-------|-------|-------|-------|-------|-------|-------|-------|-------|-------|-------|-------|-------|-------|
-------|-------|-------|-------|-------|-------|-------|-------|-------|-------|-------|-------|-------|-------|-------|-------|


                                                                          E   E   E  E    E   E   E  E   
-------|-------|-------|-------|-------|-------|-------|-------|-------|--7--10---------(10)---------7--|
-------|-------|-------|-------|-------|-------|-------|-------|-------|---------10--------------10-----|
-------|-------|-------|-------|-------|-------|-------|-------|-------|--------------------------------|
-------|-------|-------|-------|-------|-------|-------|-------|-------|--------------------------------|
-------|-------|-------|-------|-------|-------|-------|-------|-------|--------------------------------|
-------|-------|-------|-------|-------|-------|-------|-------|-------|--------------------------------|


  E   E   E  E  E  E   E  E     E   E   E  E  E  E   E  E     E   E   E  E  E  E   E  E     E   E   E  E  E  E   E  E   
-----10-------------------7--|--7--10-------------------7--|-----10-------------------7--|--7--10-------------------7--|
---------10-----------10-----|---------10-----------10-----|---------10-----------10-----|---------10-----------10-----|
-----------------------------|-----------------------------|-----------------------------|-----------------------------|
-----------------------------|-----------------------------|-----------------------------|-----------------------------|
-----------------------------|-----------------------------|-----------------------------|-----------------------------|
-----------------------------|-----------------------------|-----------------------------|-----------------------------|


  E   E   E  E  E  E   E  E     E   E   E  E  E  E   E  E     E   E   E  E  E  E   E  E     E  E  E   E  E  E  E  E   
-----10-------------------7--|--7--10-------------------7--|-----10-------------------7--|--7--7-----10--------7--7--|
---------10-----------10-----|---------10-----------10-----|---------10-----------10-----|--8--8-----12--------8--8--|
-----------------------------|-----------------------------|-----------------------------|---------------------------|
-----------------------------|-----------------------------|-----------------------------|---------------------------|
-----------------------------|-----------------------------|-----------------------------|---------------------------|
-----------------------------|-----------------------------|-----------------------------|---------------------------|


  E   E  E  E  E  E   E  E     E  E  E   E  E  E  E  E     E   E  E  E  E  E   E  E     E  E  E   E  E  E  E  E   
-----10--------7-----10-----|--7--7-----10--------7--7--|-----10--------7-----10-----|--7--7-----10--------7--7--|
-----12--------8-----12-----|--8--8-----12--------8--8--|-----12--------8-----12-----|--8--8-----12--------8--8--|
----------------------------|---------------------------|----------------------------|---------------------------|
----------------------------|---------------------------|----------------------------|---------------------------|
----------------------------|---------------------------|----------------------------|---------------------------|
----------------------------|---------------------------|----------------------------|---------------------------|


  E   E  E  E  E  E   E  E     E  E  E   E  E  E  E  E     E  E  E  E  E  E   E   E      E   E  E   E  E  E   E   E   
-----10--------7-----10-----|--7--7-----10--------7--L--|--L--7--L--L--L--L--12--11--|--12--12-----11--------12--12--|
-----12--------8-----12-----|--8--8-----12--------8--L--|--L--7--L--L--L--L----------|-------------------------------|
----------------------------|---------------------------|----------------------------|-------------------------------|
----------------------------|---------------------------|----------------------------|-------------------------------|
----------------------------|---------------------------|----------------------------|-------------------------------|
----------------------------|---------------------------|----------------------------|-------------------------------|


  E   E  E  E   E  E   E  E      E   E  E   E  E  E   E   E     E   E  E  E   E  E   E  E      E   E  E   E  E  E   E   E   
-----11--------12-----12-----|--12--12-----11--------12--12--|-----11--------12-----12-----|--12--12-----11--------12--12--|
-----------------------------|-------------------------------|-----------------------------|-------------------------------|
-----------------------------|-------------------------------|-----------------------------|-------------------------------|
-----------------------------|-------------------------------|-----------------------------|-------------------------------|
-----------------------------|-------------------------------|-----------------------------|-------------------------------|
-----------------------------|-------------------------------|-----------------------------|-------------------------------|


  E   E  E  E   E  E   E  E      E   E  E   E  E  E   E  E     E   E  E  E  E  E   E   E      E   E  E   E  E  E   E   E   
-----11--------12-----12-----|--12--12-----11--------12--L--|--L--11--L--L--L--L--12--11--|--12--12-----11--------12--12--|
-----------------------------|------------------------------|-----------------------------|-------------------------------|
-----------------------------|------------------------------|-----------------------------|-------------------------------|
-----------------------------|------------------------------|-----------------------------|-------------------------------|
-----------------------------|------------------------------|-----------------------------|-------------------------------|
-----------------------------|------------------------------|-----------------------------|-------------------------------|


  E   E  E  E   E  E   E  E      E   E  E   E  E  E   E   E     E   E  E  E   E  E   E  E      E   E  E   E  E  E   E   E   
-----11--------12-----12-----|--12--12-----11--------12--12--|-----11--------12-----12-----|--12--12-----11--------12--12--|
-----------------------------|-------------------------------|-----------------------------|-------------------------------|
-----------------------------|-------------------------------|-----------------------------|-------------------------------|
-----------------------------|-------------------------------|-----------------------------|-------------------------------|
-----------------------------|-------------------------------|-----------------------------|-------------------------------|
-----------------------------|-------------------------------|-----------------------------|-------------------------------|


  E   E  E  E   E  E   E  E      E   E  E   E  E  E   E  E     E   E  E  E  E  E   E   E     
-----11--------12-----12-----|--12--12-----11--------12--L--|--L--11--L--L--L--L---L---L---||
-----------------------------|------------------------------|------------------------------||
-----------------------------|------------------------------|-----------------------------*||
-----------------------------|------------------------------|-----------------------------*||
-----------------------------|------------------------------|------------------------------||
-----------------------------|------------------------------|------------------------------||


Some String Stuff

                                                                      W                   W                             
E||--------|-------|-------|-------|-------|-------|-------|-------|-------------------|-------------------|-----------|
B||--------|-------|-------|-------|-------|-------|-------|-------|-------------------|-------------------|-----------|
G||*-------|-------|-------|-------|-------|-------|-------|-------|--9----------------|--L----------------|-----------|
D||*-------|-------|-------|-------|-------|-------|-------|-------|-------------------|-------------------|-----------|
A||--------|-------|-------|-------|-------|-------|-------|-------|-------------------|-------------------|-----------|
E||--------|-------|-------|-------|-------|-------|-------|-------|-------------------|-------------------|-----------|


              W                   W                                           W                   W                             
-----------|-------------------|-------------------|-----------|-----------|-------------------|-------------------|-----------|
-----------|-------------------|-------------------|-----------|-----------|--8----------------|--L----------------|-----------|
-----------|--9----------------|--L----------------|-----------|-----------|--9----------------|--L----------------|-----------|
-----------|-------------------|-------------------|-----------|-----------|-------------------|-------------------|-----------|
-----------|-------------------|-------------------|-----------|-----------|-------------------|-------------------|-----------|
-----------|-------------------|-------------------|-----------|-----------|-------------------|-------------------|-----------|


              W                   W                                           W                   W                 
-----------|-------------------|-------------------|-----------|-----------|-------------------|-------------------|
-----------|--8----------------|--L----------------|-----------|-----------|-------------------|-------------------|
-----------|--9----------------|--L----------------|-----------|-----------|--9----------------|--L----------------|
-----------|-------------------|-------------------|-----------|-----------|-------------------|-------------------|
-----------|-------------------|-------------------|-----------|-----------|-------------------|-------------------|
-----------|-------------------|-------------------|-----------|-----------|-------------------|-------------------|


  W                    H         Q     Q        W                   W                   W                    H         H         
-------------------|------------------10----|--12----------------|--L----------------|--L----------------|--11------------------|
-------------------|--12--------10----------|--------------------|-------------------|-------------------|------------10--------|
--L----------------|------------------------|--------------------|-------------------|-------------------|----------------------|
-------------------|------------------------|--------------------|-------------------|-------------------|----------------------|
-------------------|------------------------|--------------------|-------------------|-------------------|----------------------|
-------------------|------------------------|--------------------|-------------------|-------------------|----------------------|


   W                   W                   Q     Q     Q     Q        Q.      Q.      Q        Q     Q    Q     Q     
--------------------|-------------------|-------------10----14----|--12------10------14----|--12----12---------14----|
--12----------------|--L----------------|-------10----------------|------------------------|--15----15---------15----|
--------------------|-------------------|-------------------------|------------------------|-------------------------|
--------------------|-------------------|-------------------------|------------------------|-------------------------|
--------------------|-------------------|-------------------------|------------------------|-------------------------|
--------------------|-------------------|-------------------------|------------------------|-------------------------|


   Q    Q     Q     Q       Q     Q     H            H         H           W                   W                 
--14---------12----12----|-------10----10--------|----------------------|-------------------|-------------------|
--15---------12----12----|-------12-----8--------|--12--------10--------|-------------------|-------------------|
-------------------------|-----------------------|----------------------|--9----------------|--L----------------|
-------------------------|-----------------------|----------------------|-------------------|-------------------|
-------------------------|-----------------------|----------------------|-------------------|-------------------|
-------------------------|-----------------------|----------------------|-------------------|-------------------|


  W                   W                   W                   W                   W                   W                 
-------------------|-------------------|-------------------|-------------------|-------------------|-------------------|
-------------------|-------------------|-------------------|-------------------|-------------------|-------------------|
--L----------------|--L----------------|--9----------------|--L----------------|--L----------------|--8----------------|
-------------------|-------------------|-------------------|-------------------|-------------------|-------------------|
-------------------|-------------------|-------------------|-------------------|-------------------|-------------------|
-------------------|-------------------|-------------------|-------------------|-------------------|-------------------|


  W                   W                   W                   W                   W                   W                 
-------------------|-------------------|-------------------|-------------------|-------------------|-------------------|
-------------------|-------------------|-------------------|-------------------|-------------------|-------------------|
--9----------------|--L----------------|--L----------------|--L----------------|--9----------------|--L----------------|
-------------------|-------------------|-------------------|-------------------|-------------------|-------------------|
-------------------|-------------------|-------------------|-------------------|-------------------|-------------------|
-------------------|-------------------|-------------------|-------------------|-------------------|-------------------|


  W                                       W                   W                   W                   W                 
-------------------|-------------------|-------------------|-------------------|-------------------|-------------------|
-------------------|-------------------|-------------------|-------------------|-------------------|-------------------|
--L----------------|-------------------|-------------------|-------------------|-------------------|-------------------|
-------------------|-------------------|-------------------|-------------------|-------------------|-------------------|
-------------------|-------------------|-------------------|-------------------|-------------------|-------------------|
-------------------|-------------------|--9----------------|--L----------------|--9----------------|--L----------------|


  W                   W                   W                   W                   W                   W                 
-------------------|-------------------|-------------------|-------------------|-------------------|-------------------|
-------------------|-------------------|-------------------|-------------------|-------------------|-------------------|
-------------------|-------------------|-------------------|-------------------|-------------------|-------------------|
-------------------|-------------------|-------------------|-------------------|-------------------|-------------------|
-------------------|-------------------|-------------------|-------------------|-------------------|-------------------|
--9----------------|--L----------------|--9----------------|--L----------------|--9----------------|--L----------------|


  W                   W                   W                   W                   W                   W                   
-------------------|-------------------|-------------------|-------------------|-------------------|--------------------||
-------------------|-------------------|-------------------|-------------------|-------------------|--------------------||
-------------------|-------------------|-------------------|-------------------|-------------------|-------------------*||
-------------------|-------------------|-------------------|-------------------|-------------------|-------------------*||
-------------------|-------------------|-------------------|-------------------|-------------------|--------------------||
--9----------------|--L----------------|--9----------------|--L----------------|--9----------------|--L-----------------||


Needs Moar Strings

E||--------|-------|-------|-------|-------|-------|-------|-------|-------|-------|-------|-------|-------|-------|-------|
B||--------|-------|-------|-------|-------|-------|-------|-------|-------|-------|-------|-------|-------|-------|-------|
G||*-------|-------|-------|-------|-------|-------|-------|-------|-------|-------|-------|-------|-------|-------|-------|
D||*-------|-------|-------|-------|-------|-------|-------|-------|-------|-------|-------|-------|-------|-------|-------|
A||--------|-------|-------|-------|-------|-------|-------|-------|-------|-------|-------|-------|-------|-------|-------|
E||--------|-------|-------|-------|-------|-------|-------|-------|-------|-------|-------|-------|-------|-------|-------|


                                                                          W                   W                 
-------|-------|-------|-------|-------|-------|-------|-------|-------|-------------------|-------------------|
-------|-------|-------|-------|-------|-------|-------|-------|-------|-------------------|-------------------|
-------|-------|-------|-------|-------|-------|-------|-------|-------|-------------------|-------------------|
-------|-------|-------|-------|-------|-------|-------|-------|-------|--9----------------|--L----------------|
-------|-------|-------|-------|-------|-------|-------|-------|-------|-------------------|-------------------|
-------|-------|-------|-------|-------|-------|-------|-------|-------|-------------------|-------------------|


  W                   W                    W                   W                   W                   H        H         
-------------------|-------------------|--------------------|-------------------|-------------------|--------------------|
-------------------|-------------------|--------------------|-------------------|-------------------|--------------------|
-------------------|-------------------|--------------------|-------------------|-------------------|--------------------|
--L----------------|--9----------------|--10----------------|--L----------------|--L----------------|--9-----------------|
-------------------|-------------------|--------------------|-------------------|-------------------|-----------9--------|
-------------------|-------------------|--------------------|-------------------|-------------------|--------------------|


  W                   W                   W                   W                    W                   W                 
-------------------|-------------------|-------------------|-------------------|--------------------|-------------------|
-------------------|-------------------|-------------------|-------------------|--------------------|-------------------|
-------------------|-------------------|-------------------|-------------------|--------------------|-------------------|
--9----------------|--L----------------|--L----------------|--9----------------|--10----------------|--L----------------|
-------------------|-------------------|-------------------|-------------------|--------------------|-------------------|
-------------------|-------------------|-------------------|-------------------|--------------------|-------------------|


  W                   H        H           W                   W                   W                   W                 
-------------------|--------------------|-------------------|-------------------|-------------------|-------------------|
-------------------|--------------------|-------------------|-------------------|-------------------|-------------------|
-------------------|--------------------|-------------------|-------------------|-------------------|-------------------|
--L----------------|--9-----------------|--9----------------|--L----------------|--L----------------|--L----------------|
-------------------|-----------9--------|-------------------|-------------------|-------------------|-------------------|
-------------------|--------------------|-------------------|-------------------|-------------------|-------------------|


   W                   W                   W                   W                   W                   W                 
--------------------|-------------------|-------------------|-------------------|-------------------|-------------------|
--------------------|-------------------|-------------------|-------------------|-------------------|-------------------|
--------------------|-------------------|-------------------|-------------------|-------------------|-------------------|
--10----------------|--L----------------|--L----------------|--9----------------|--9----------------|--L----------------|
--------------------|-------------------|-------------------|-------------------|-------------------|-------------------|
--------------------|-------------------|-------------------|-------------------|-------------------|-------------------|


  W                   W                    W                   W                   W                   H        Q    E  E   
-------------------|-------------------|--------------------|-------------------|-------------------|----------------------|
-------------------|-------------------|--------------------|-------------------|-------------------|----------------5--4--|
-------------------|-------------------|--------------------|-------------------|-------------------|----------------------|
--L----------------|--L----------------|--10----------------|--L----------------|--L----------------|----------------------|
-------------------|-------------------|--------------------|-------------------|-------------------|----------------------|
-------------------|-------------------|--------------------|-------------------|-------------------|----------------------|


  E  E  E  E  E  E  E  E     E  E  E  E  E  E  E  E     E  E  E  E  E  E  E  E     E  E  E  E  E  E  E  E   
--------------------------|--------------------------|--------------------------|--------------------------|
--5--5-----4--------5--5--|-----4--------5-----5-----|--5--5-----4--------5--5--|-----4--------5-----5-----|
--------------------------|--------------------------|--------------------------|--------------------------|
--------------------------|--------------------------|--------------------------|--------------------------|
--------------------------|--------------------------|--------------------------|--------------------------|
--------------------------|--------------------------|--------------------------|--------------------------|


  E  E  E  E  E  E  E  E     E  E  E  E  E  E  E  E     E  E  E  E  E  E  E  E     E  E  E  E  E  E  E  E   
--------------------------|--------------------------|--------------------------|--------------------------|
--5--5-----4--------5--5--|-----4--------5-----5-----|--5--5-----4--------5--L--|--L--4--L--L--L--L--5--4--|
--------------------------|--------------------------|--------------------------|--------------------------|
--------------------------|--------------------------|--------------------------|--------------------------|
--------------------------|--------------------------|--------------------------|--------------------------|
--------------------------|--------------------------|--------------------------|--------------------------|


  E  E  E  E  E  E  E  E     E  E  E  E  E  E  E  E     E  E  E  E  E  E  E  E     E  E  E  E  E  E  E  E   
--------------------------|--------------------------|--------------------------|--------------------------|
--5--5-----4--------5--5--|-----4--------5-----5-----|--5--5-----4--------5--5--|-----4--------5-----5-----|
--------------------------|--------------------------|--------------------------|--------------------------|
--------------------------|--------------------------|--------------------------|--------------------------|
--------------------------|--------------------------|--------------------------|--------------------------|
--------------------------|--------------------------|--------------------------|--------------------------|


  E  E  E  E  E  E  E  E     E  E  E  E  E  E  E  E     E  E  E  E  E  E  E  E     E  E  E  E  E  E  E  E     
--------------------------|--------------------------|--------------------------|---------------------------||
--5--5-----4--------5--5--|-----4--------5-----5-----|--5--5-----4--------5--L--|--L--4--L--L--L--L--L--L---||
--------------------------|--------------------------|--------------------------|--------------------------*||
--------------------------|--------------------------|--------------------------|--------------------------*||
--------------------------|--------------------------|--------------------------|---------------------------||
--------------------------|--------------------------|--------------------------|---------------------------||


Piano of Doom

E||--------|-------|-------|-------|-------|-------|-------|-------|-------|-------|-------|-------|-------|-------|-------|
B||--------|-------|-------|-------|-------|-------|-------|-------|-------|-------|-------|-------|-------|-------|-------|
G||*-------|-------|-------|-------|-------|-------|-------|-------|-------|-------|-------|-------|-------|-------|-------|
D||*-------|-------|-------|-------|-------|-------|-------|-------|-------|-------|-------|-------|-------|-------|-------|
A||--------|-------|-------|-------|-------|-------|-------|-------|-------|-------|-------|-------|-------|-------|-------|
E||--------|-------|-------|-------|-------|-------|-------|-------|-------|-------|-------|-------|-------|-------|-------|


  Q    Q    Q     E   E      E   E   E   E   E   E   E   E     E   E   E   E   E   E   E   E      E   E   E   E   E   E   E   E   
-------------------------|----------------------------------|---------------------------------|----------------------------------|
-----------------17--19--|--20--19----------------------20--|--L--19------------------17--19--|--20--19----------------------20--|
-------------------------|----------19--------------19------|---------19----------------------|----------19--------------19------|
-------------------------|--------------19--17--16----------|-------------19--17--16----------|--------------19--17--16----------|
-------------------------|----------------------------------|---------------------------------|----------------------------------|
-------------------------|----------------------------------|---------------------------------|----------------------------------|


  E   E   E   E   E   E   E   E      E   E   E   E   E   E   E   E     E   E   E   E   E   E   E   E   
---------------------------------|----------------------------------|---------------------------------|
--L--19------------------17--19--|--20--19----------------------20--|--L--19------------------17--19--|
---------19----------------------|----------19--------------19------|---------19----------------------|
-------------19--17--16----------|--------------19--17--16----------|-------------19--17--16----------|
---------------------------------|----------------------------------|---------------------------------|
---------------------------------|----------------------------------|---------------------------------|


   E   E   E   E   E   E   E   E     E   E   E   E   E   E   E   E      E   E   E   E   E   E   E   E   
----------------------------------|---------------------------------|----------------------------------|
--20--19----------------------20--|--L--19------------------17--19--|--20--19----------------------20--|
----------19--------------19------|---------19----------------------|----------19--------------19------|
--------------19--17--16----------|-------------19--17--16----------|--------------19--17--16----------|
----------------------------------|---------------------------------|----------------------------------|
----------------------------------|---------------------------------|----------------------------------|


  E   E   E   E   E   E   E   E      E   E   E   E   E   E   E   E     E   E   E   E   E   E   E   E   
---------------------------------|----------------------------------|---------------------------------|
--L--19------------------17--19--|--20--19----------------------20--|--L--19------------------17--19--|
---------19----------------------|----------19--------------19------|---------19----------------------|
-------------19--17--16----------|--------------19--17--16----------|-------------19--17--16----------|
---------------------------------|----------------------------------|---------------------------------|
---------------------------------|----------------------------------|---------------------------------|


   E   E   E   E   E   E   E   E     E   E   E   E   E   E   E   E      E   E   E   E   E   E   E   E   
----------------------------------|---------------------------------|----------------------------------|
--20--19----------------------20--|--L--19------------------17--19--|--20--19----------------------20--|
----------19--------------19------|---------19----------------------|----------19--------------19------|
--------------19--17--16----------|-------------19--17--16----------|--------------19--17--16----------|
----------------------------------|---------------------------------|----------------------------------|
----------------------------------|---------------------------------|----------------------------------|


  E   E   E   E   E   E   E   E      E   E   E   E   E   E   E   E     E   E   E   E   E   E   E   E   
---------------------------------|----------------------------------|---------------------------------|
--L------------------------------|--20--19----------------------20--|--L--19------------------17--19--|
-------------16------------------|----------19--------------19------|---------19----------------------|
-----16--19------17--16------16--|--17----------19--17--16----------|-------------19--17--16----------|
-------------------------18------|----------------------------------|---------------------------------|
---------------------------------|----------------------------------|---------------------------------|


   E   E   E   E   E   E   E   E     E   E   E   E   E   E   E   E      E   E   E   E   E   E   E   E   
----------------------------------|---------------------------------|----------------------------------|
--20--19----------------------20--|--L--19------------------17--19--|--20--19----------------------20--|
----------19--------------19------|---------19----------------------|----------19--------------19------|
--------------19--17--16----------|-------------19--17--16----------|--------------19--17--16----------|
----------------------------------|---------------------------------|----------------------------------|
----------------------------------|---------------------------------|----------------------------------|


  E   E   E   E   E   E   E   E      E   E   E   E   E   E   E   E     E   E   E   E   E   E   E   E   
---------------------------------|----------------------------------|---------------------------------|
--L--19------------------17--19--|--20--19----------------------20--|--L------------------------------|
---------19----------------------|----------19--------------19------|-------------16------------------|
-------------19--17--16----------|--------------19--17--16----------|-----16--19------17--16------16--|
---------------------------------|----------------------------------|-------------------------18------|
---------------------------------|----------------------------------|---------------------------------|


   E   E   E   E   E   E   E   E     E   E   E   E   E   E   E   E      E   E   E   E   E   E   E   E   
----------------------------------|---------------------------------|----------------------------------|
--20--19----------------------20--|--L--19------------------17--19--|--20--19----------------------20--|
----------19--------------19------|---------19----------------------|----------19--------------19------|
--17----------19--17--16----------|-------------19--17--16----------|--------------19--17--16----------|
----------------------------------|---------------------------------|----------------------------------|
----------------------------------|---------------------------------|----------------------------------|


  E   E   E   E   E   E   E   E      E   E   E   E   E   E   E   E     E   E   E   E   E   E   E   E   
---------------------------------|----------------------------------|---------------------------------|
--L--19------------------17--19--|--20--19----------------------20--|--L--19------------------17--19--|
---------19----------------------|----------19--------------19------|---------19----------------------|
-------------19--17--16----------|--------------19--17--16----------|-------------19--17--16----------|
---------------------------------|----------------------------------|---------------------------------|
---------------------------------|----------------------------------|---------------------------------|


   E   E   E   E   E   E   E   E     E   E   E   E   E   E   E   E      E   E   E   E   E   E   E   E   
----------------------------------|---------------------------------|----------------------------------|
--20--19----------------------20--|--L------------------------------|--20--19----------------------20--|
----------19--------------19------|-------------16------------------|----------19--------------19------|
--------------19--17--16----------|-----16--19------17--16------16--|--17----------19--17--16----------|
----------------------------------|-------------------------18------|----------------------------------|
----------------------------------|---------------------------------|----------------------------------|


  E   E   E   E   E   E   E   E      E   E   E   E   E   E   E   E     E   E   E   E   E   E   E   E   
---------------------------------|----------------------------------|---------------------------------|
--L--19------------------17--19--|--20--19----------------------20--|--L--19------------------17--19--|
---------19----------------------|----------19--------------19------|---------19----------------------|
-------------19--17--16----------|--------------19--17--16----------|-------------19--17--16----------|
---------------------------------|----------------------------------|---------------------------------|
---------------------------------|----------------------------------|---------------------------------|


   E   E   E   E   E   E   E   E     E   E   E   E   E   E   E   E      E   E   E   E   E   E   E   E   
----------------------------------|---------------------------------|----------------------------------|
--20--19----------------------20--|--L--19------------------17--19--|--20--19--------------------------|
----------19--------------19------|---------19----------------------|----------19--------------19--21--|
--------------19--17--16----------|-------------19--17--16----------|--------------19--17--16----------|
----------------------------------|---------------------------------|----------------------------------|
----------------------------------|---------------------------------|----------------------------------|


  E  E  E  E  E  E  E  E      E   E   E   E   E   E   E   E     E   E   E   E   E   E   E   E   
--------------------------|----------------------------------|---------------------------------|
--------------------------|----------------------------------|---------------------------------|
--L-----------------------|----------------------------------|---------------------------------|
--------------------------|--14--13----------------------11--|--L--13----------------------11--|
--------------------------|----------14--------------14------|---------14--------------14------|
--------------------------|--------------14--12--11----------|-------------14--12--11----------|


   E   E   E   E   E   E   E   E     E   E   E   E   E   E   E   E      E   E   E   E   E   E   E   E   
----------------------------------|---------------------------------|----------------------------------|
----------------------------------|---------------------------------|----------------------------------|
----------------------------------|---------------------------------|----------------------------------|
--14--13----------------------11--|--L--13----------------------11--|--14--13----------------------11--|
----------14--------------14------|---------14--------------14------|----------14--------------14------|
--------------14--12--11----------|-------------14--12--11----------|--------------14--12--11----------|


  E   E   E   E   E   E   E   E      E   E   E   E   E   E   E   E     E   E   E   E   E   E   E   E   
---------------------------------|----------------------------------|---------------------------------|
---------------------------------|----------------------------------|---------------------------------|
---------------------------------|----------------------------------|---------------------------------|
--L--13----------------------11--|--14--13----------------------11--|--L--13----------------------11--|
---------14--------------14------|----------14--------------14------|---------15--------------14------|
-------------14--12--11----------|--------------14--12--11----------|-------------14--12--11----------|


   E   E   E   E   E   E   E   E     E   E   E   E   E   E   E   E      E   E   E   E   E   E   E   E   
----------------------------------|---------------------------------|----------------------------------|
----------------------------------|---------------------------------|----------------------------------|
----------------------------------|---------------------------------|----------------------------------|
--14--13----------------------11--|--L--13----------------------11--|--14--13----------------------11--|
----------14--------------14------|---------14--------------14------|----------14--------------14------|
--------------14--12--11----------|-------------14--12--11----------|--------------14--12--11----------|


  E   E   E   E   E   E   E   E      E   E   E   E   E   E   E   E     E   E   E   E   E   E   E   E   
---------------------------------|----------------------------------|---------------------------------|
---------------------------------|----------------------------------|---------------------------------|
---------------------------------|----------------------------------|---------------------------------|
--L--13----------------------11--|--14--13----------------------11--|--L--13----------------------11--|
---------14--------------14------|----------14--------------14------|---------14--------------14------|
-------------14--12--11----------|--------------14--12--11----------|-------------14--12--11----------|


   E   E   E   E   E   E   E   E     E   E  E  E  E  E  E     
----------------------------------|-------------------------||
----------------------------------|-------------------------||
----------------------------------|------------------------*||
--14--13----------------------11--|--L---L--L--L--L--L--L--*||
----------14--------------14------|-------------------------||
--------------14--12--11----------|-------------------------||


Piano of SubDoom

E||--------|-------|-------|-------|-------|-------|-------|-------|-------|-------|-------|-------|-------|-------|-------|
B||--------|-------|-------|-------|-------|-------|-------|-------|-------|-------|-------|-------|-------|-------|-------|
G||*-------|-------|-------|-------|-------|-------|-------|-------|-------|-------|-------|-------|-------|-------|-------|
D||*-------|-------|-------|-------|-------|-------|-------|-------|-------|-------|-------|-------|-------|-------|-------|
A||--------|-------|-------|-------|-------|-------|-------|-------|-------|-------|-------|-------|-------|-------|-------|
E||--------|-------|-------|-------|-------|-------|-------|-------|-------|-------|-------|-------|-------|-------|-------|


  Q    Q    Q    E   E      E   E   E  E  E  E   E   E     E   E   E  E  E  E   E   E     E   E   E  E  E  E   E   E   
--------------------14--|--12--14--10--L--------10--10--|-----14--10--L--L--L--10--10--|-----14--10--L--L--L--10--10--|
------------------------|-------------------------------|------------------------------|------------------------------|
------------------------|-------------------------------|------------------------------|------------------------------|
------------------------|-------------------------------|------------------------------|------------------------------|
------------------------|-------------------------------|------------------------------|------------------------------|
------------------------|-------------------------------|------------------------------|------------------------------|


  E   E   E  E  E  E   E   E     E   E   E  E  E  E   E   E     E   E   E  E  E  E   E   E     E   E   E  E  E  E   E   E   
-----14--10--L--L--L--10--10--|-----14--10--L--L--L--10--10--|-----14--10--L--L--L--10--10--|-----14--10--L--L--L--10--10--|
------------------------------|------------------------------|------------------------------|------------------------------|
------------------------------|------------------------------|------------------------------|------------------------------|
------------------------------|------------------------------|------------------------------|------------------------------|
------------------------------|------------------------------|------------------------------|------------------------------|
------------------------------|------------------------------|------------------------------|------------------------------|


  E   E   E  E  E  E   E   E     E   E   E  E  E  E   E   E     E   E   E  E  E  E   E   E     E   E   E  E  E  E   E   E   
-----14--10--L--L--L--10--10--|-----14--10--L--L--L--10--10--|-----14--10--L--L--L--10--10--|-----14--10--L--L--L--10--10--|
------------------------------|------------------------------|------------------------------|------------------------------|
------------------------------|------------------------------|------------------------------|------------------------------|
------------------------------|------------------------------|------------------------------|------------------------------|
------------------------------|------------------------------|------------------------------|------------------------------|
------------------------------|------------------------------|------------------------------|------------------------------|


  E   E   E  E  E  E   E   E     E   E   E  E  E  E   E   E     E   E   E  E  E  E   E   E     E   E   E  E  E  E   E   E   
-----14--10--L--L--L--10--10--|-----14--10--L--L--L--10--10--|-----14--10--L--L--L--10--10--|-----14--10--L--L--L--10--10--|
------------------------------|------------------------------|------------------------------|------------------------------|
------------------------------|------------------------------|------------------------------|------------------------------|
------------------------------|------------------------------|------------------------------|------------------------------|
------------------------------|------------------------------|------------------------------|------------------------------|
------------------------------|------------------------------|------------------------------|------------------------------|


  E   E   E  E  E  E   E   E     E   E   E  E  E  E   E   E     E   E   E  E  E  E   E   E     E   E   E  E  E  E   E   E   
-----14--10--L--L--L--10--10--|-----14--10--L--L--L--10--10--|-----14--10--L--L--L--10--10--|-----14--10--L--L--L--10--10--|
------------------------------|------------------------------|------------------------------|------------------------------|
------------------------------|------------------------------|------------------------------|------------------------------|
------------------------------|------------------------------|------------------------------|------------------------------|
------------------------------|------------------------------|------------------------------|------------------------------|
------------------------------|------------------------------|------------------------------|------------------------------|


  E   E   E  E  E  E   E   E     E   E   E  E  E  E   E   E     E   E   E  E  E  E   E   E     E   E   E  E  E  E   E   E   
-----14--10--L--L--L--10--10--|-----14--10--L--L--L--10--10--|-----14--10--L--L--L--10--10--|-----14--10--L--L--L--10--10--|
------------------------------|------------------------------|------------------------------|------------------------------|
------------------------------|------------------------------|------------------------------|------------------------------|
------------------------------|------------------------------|------------------------------|------------------------------|
------------------------------|------------------------------|------------------------------|------------------------------|
------------------------------|------------------------------|------------------------------|------------------------------|


  E   E   E  E  E  E   E   E     E   E   E  E  E  E   E   E     E   E   E  E  E  E   E   E     E   E   E  E  E  E   E   E   
-----14--10--L--L--L--10--10--|-----14--10--L--L--L--10--10--|-----14--10--L--L--L--10--10--|-----14--10--L--L--L--10--10--|
------------------------------|------------------------------|------------------------------|------------------------------|
------------------------------|------------------------------|------------------------------|------------------------------|
------------------------------|------------------------------|------------------------------|------------------------------|
------------------------------|------------------------------|------------------------------|------------------------------|
------------------------------|------------------------------|------------------------------|------------------------------|


  E   E   E  E  E  E   E   E     E   E   E  E  E  E   E   E     E   E   E  E  E  E   E   E     E   E   E  E  E  E   E   E   
-----14--10--L--L--L--10--10--|-----14--10--L--L--L--10--10--|-----14--10--L--L--L--10--10--|-----14--10--L--L--L--10--10--|
------------------------------|------------------------------|------------------------------|------------------------------|
------------------------------|------------------------------|------------------------------|------------------------------|
------------------------------|------------------------------|------------------------------|------------------------------|
------------------------------|------------------------------|------------------------------|------------------------------|
------------------------------|------------------------------|------------------------------|------------------------------|


  E   E   E  E  E  E   E   E     E   E   E  E  E  E   E   E     E   E   E  E  E  E   E   E     E   E   E  E  E  E   E   E   
-----14--10--L--L--L--10--10--|-----14--10--L--L--L--10--10--|-----14--10--L--L--L--10--10--|-----14--10--L--L--L--10--10--|
------------------------------|------------------------------|------------------------------|------------------------------|
------------------------------|------------------------------|------------------------------|------------------------------|
------------------------------|------------------------------|------------------------------|------------------------------|
------------------------------|------------------------------|------------------------------|------------------------------|
------------------------------|------------------------------|------------------------------|------------------------------|


  E   E   E  E  E  E   E   E     E   E   E  E  E  E   E   E     E   E   E  E  E  E   E   E     E   E   E  E  E  E   E   E         
-----14--10--L--L--L--10--10--|-----14--10--L--L--L--10--10--|-----14--10--L--L--L--10--10--|-----14--10--L--L--L--10--10--|-----|
------------------------------|------------------------------|------------------------------|------------------------------|-----|
------------------------------|------------------------------|------------------------------|------------------------------|-----|
------------------------------|------------------------------|------------------------------|------------------------------|-----|
------------------------------|------------------------------|------------------------------|------------------------------|-----|
------------------------------|------------------------------|------------------------------|------------------------------|-----|


   E  E  E  E  E  E  E   E     E  E  E  E  E  E  E  E      E  E  E  E  E  E  E   E     E  E  E  E  E  E  E  E   
----------------------------|--------------------------|----------------------------|--------------------------|
----------------------------|--------------------------|----------------------------|--------------------------|
----------------------------|--------------------------|----------------------------|--------------------------|
--11--L--L--L--L--L--L--11--|--L--L--L--L--L--L--L--L--|--11--L--L--L--L--L--L--11--|--L--L--L--L--L--L--L--L--|
----------------------------|--------------------------|----------------------------|--------------------------|
----------------------------|--------------------------|----------------------------|--------------------------|


   E  E  E  E  E  E  E   E     E  E  E  E  E  E  E  E      E  E  E  E  E  E  E   E     E  E  E  E  E  E  E  E   
----------------------------|--------------------------|----------------------------|--------------------------|
----------------------------|--------------------------|----------------------------|--------------------------|
----------------------------|--------------------------|----------------------------|--------------------------|
--11--L--L--L--L--L--L--11--|--L--L--L--L--L--L--L--L--|--11--L--L--L--L--L--L--11--|--L--L--L--L--L--L--L--L--|
----------------------------|--------------------------|----------------------------|--------------------------|
----------------------------|--------------------------|----------------------------|--------------------------|


   E  E  E  E  E  E  E   E     E  E  E  E  E  E  E  E      E  E  E  E  E  E  E   E     E  E  E  E  E  E  E  E   
----------------------------|--------------------------|----------------------------|--------------------------|
----------------------------|--------------------------|----------------------------|--------------------------|
----------------------------|--------------------------|----------------------------|--------------------------|
--11--L--L--L--L--L--L--11--|--L--L--L--L--L--L--L--L--|--11--L--L--L--L--L--L--11--|--L--L--L--L--L--L--L--L--|
----------------------------|--------------------------|----------------------------|--------------------------|
----------------------------|--------------------------|----------------------------|--------------------------|


   E  E  E  E  E  E  E   E     E  E  E  E  E  E  E  E      E  E  E  E  E  E  E   E     E  E  E  E  E  E  E  E     
----------------------------|--------------------------|----------------------------|---------------------------||
----------------------------|--------------------------|----------------------------|---------------------------||
----------------------------|--------------------------|----------------------------|--------------------------*||
--11--L--L--L--L--L--L--11--|--L--L--L--L--L--L--L--L--|--11--L--L--L--L--L--L--11--|--L--L--L--L--L--L--L--L--*||
----------------------------|--------------------------|----------------------------|---------------------------||
----------------------------|--------------------------|----------------------------|---------------------------||

Rhythmy Piano

E||--------|-------|-------|-------|-------|-------|-------|-------|-------|-------|-------|-------|-------|-------|-------|
B||--------|-------|-------|-------|-------|-------|-------|-------|-------|-------|-------|-------|-------|-------|-------|
G||*-------|-------|-------|-------|-------|-------|-------|-------|-------|-------|-------|-------|-------|-------|-------|
D||*-------|-------|-------|-------|-------|-------|-------|-------|-------|-------|-------|-------|-------|-------|-------|
A||--------|-------|-------|-------|-------|-------|-------|-------|-------|-------|-------|-------|-------|-------|-------|
E||--------|-------|-------|-------|-------|-------|-------|-------|-------|-------|-------|-------|-------|-------|-------|


                                          H        E  E  E  E     E  E  E  E  E  E  E  E     E  E  E  E  E  E  E  E   
-------|-------|-------|-------|-------|-----------------------|--------------------------|--------------------------|
-------|-------|-------|-------|-------|-----------------------|--------------------------|--------------------------|
-------|-------|-------|-------|-------|--9--------------7--9--|--L--L--L--9--L--L--L--9--|--L--L--L--9--L--L--L--9--|
-------|-------|-------|-------|-------|--9-----------7-----9--|--L--L--L--9--L--L--L--9--|--L--L--L--9--L--L--L--9--|
-------|-------|-------|-------|-------|--7--------7--------7--|--L--L--L--7--L--L--L--7--|--L--L--L--7--L--L--L--7--|
-------|-------|-------|-------|-------|-----------------------|--------------------------|--------------------------|


  E  E  E  E  E  E  E  E     Q.     Q.     Q       E  Q.     Q    Q       Q.     Q.     Q       E  Q.     Q    Q     
--------------------------|---------------------|----------------------|---------------------|----------------------|
--------------------------|--8------8------8----|--L--8------8----8----|--8------8------8----|--L--8------8----8----|
--L--L--L--9--9--L--L--L--|--9------9------9----|--L--9------9----9----|--9------9------9----|--L--9------9----9----|
--L--L--L--9--9--L--L--L--|--9------9------9----|--L--9------9----9----|--9------9------9----|--L--9------9----9----|
--L--L--L--7--7--L--L--L--|--7------7------7----|--L--7------7----7----|--7------7------7----|--L--7------7----7----|
--------------------------|---------------------|----------------------|---------------------|----------------------|


   Q.      Q.      Q       E   Q.      Q     Q        Q.      Q.      Q       E  Q.     Q    Q       Q.     Q.     Q     
------------------------|-------------------------|------------------------|----------------------|---------------------|
---8-------8-------8----|--L---8-------8-----8----|---8-------8-------8----|--L--7------7----7----|--8------8------8----|
---9-------9-------9----|--L---9-------9-----9----|---9-------9-------9----|--L--8------8----8----|--9------9------9----|
--10------10------10----|--L--10------10----10----|--10------10------10----|--L--9------9----9----|--9------9------9----|
---7-------7-------7----|--L---7-------7-----7----|---7-------7-------7----|--L--6------6----6----|--7------7------7----|
------------------------|-------------------------|------------------------|----------------------|---------------------|


  E  Q.     Q    Q       Q.     Q.     Q       E  Q.     Q    Q        Q.      Q.      Q       E   Q.      Q     Q     
----------------------|---------------------|----------------------|------------------------|-------------------------|
--L--8------8----8----|--8------8------8----|--L--8------8----8----|---8-------8-------8----|--L---8-------8-----8----|
--L--9------9----9----|--9------9------9----|--L--9------9----9----|---9-------9-------9----|--L---9-------9-----9----|
--L--9------9----9----|--9------9------9----|--L--9------9----9----|--10------10------10----|--L--10------10----10----|
--L--7------7----7----|--7------7------7----|--L--7------7----7----|---7-------7-------7----|--L---7-------7-----7----|
----------------------|---------------------|----------------------|------------------------|-------------------------|


   Q.      Q.      Q       E  Q.     Q    Q       Q.     Q.     Q       E  Q.     Q    Q       Q.     Q.     Q     
------------------------|----------------------|---------------------|----------------------|---------------------|
---8-------8-------8----|--L--7------7----7----|--8------8------8----|--L--8------8----8----|--8------8------8----|
---9-------9-------9----|--L--8------8----8----|--9------9------9----|--L--9------9----9----|--9------9------9----|
--10------10------10----|--L--9------9----9----|--9------9------9----|--L--9------9----9----|--9------9------9----|
---7-------7-------7----|--L--6------6----6----|--7------7------7----|--L--7------7----7----|--7------7------7----|
------------------------|----------------------|---------------------|----------------------|---------------------|


  E  Q.     Q    Q        Q.      Q.      Q       E   Q.      Q     Q        Q.      Q.      Q       E  Q.     Q    Q     
----------------------|------------------------|-------------------------|------------------------|----------------------|
--L--8------8----8----|---8-------8-------8----|--L---8-------8-----8----|---8-------8-------8----|--L--7------7----7----|
--L--9------9----9----|---9-------9-------9----|--L---9-------9-----9----|---9-------9-------9----|--L--8------8----8----|
--L--9------9----9----|--10------10------10----|--L--10------10----10----|--10------10------10----|--L--9------9----9----|
--L--7------7----7----|---7-------7-------7----|--L---7-------7-----7----|---7-------7-------7----|--L--6------6----6----|
----------------------|------------------------|-------------------------|------------------------|----------------------|


  Q.     Q.     Q       E  Q.     Q    Q       Q.     Q.     Q       E  Q.     Q    Q        Q.      Q.      Q     
---------------------|----------------------|---------------------|----------------------|------------------------|
--8------8------8----|--L--8------8----8----|--8------8------8----|--L--8------8----8----|---8-------8-------8----|
--9------9------9----|--L--9------9----9----|--9------9------9----|--L--9------9----9----|---9-------9-------9----|
--9------9------9----|--L--9------9----9----|--9------9------9----|--L--9------9----9----|--10------10------10----|
--7------7------7----|--L--7------7----7----|--7------7------7----|--L--7------7----7----|---7-------7-------7----|
---------------------|----------------------|---------------------|----------------------|------------------------|


  E   Q.      Q     Q        Q.      Q.      Q       E  Q.     Q    Q                                                             
-------------------------|------------------------|----------------------|-------|-------|-------|-------|-------|-------|-------|
--L---8-------8-----8----|---8-------8-------8----|--L--7------L----L----|-------|-------|-------|-------|-------|-------|-------|
--L---9-------9-----9----|---9-------9-------9----|--L--8------L----L----|-------|-------|-------|-------|-------|-------|-------|
--L--10------10----10----|--10------10------10----|--L--9------L----L----|-------|-------|-------|-------|-------|-------|-------|
--L---7-------7-----7----|---7-------7-------7----|--L--6------L----L----|-------|-------|-------|-------|-------|-------|-------|
-------------------------|------------------------|----------------------|-------|-------|-------|-------|-------|-------|-------|


-------|-------|-------|-------|-------|-------|-------|-------|--------||
-------|-------|-------|-------|-------|-------|-------|-------|--------||
-------|-------|-------|-------|-------|-------|-------|-------|-------*||
-------|-------|-------|-------|-------|-------|-------|-------|-------*||
-------|-------|-------|-------|-------|-------|-------|-------|--------||
-------|-------|-------|-------|-------|-------|-------|-------|--------||


Duration Legend
---------------
W - whole
H - half
Q - quarter
E - 8th
S - 16th
. - note dotted



Tablature Legend
----------------
L - tied note
(n) - ghost note
Login or Register to remove this ad.

4 comments on Fires of Hokkai

The great Jacob is back

5

The great Jacob is back

:D! REX YOU ARE WHAT KEEPS ME

:D!
REX YOU ARE WHAT KEEPS ME GOING

Love this melody, and love

Love this melody, and love all of the japanese arrangements off of it.

Some examples that I can think off the top of my head...

its a good song i always

its a good song

i always like when demetori does something mellow