Solar Sect of Mystic Wisdom ~ Nuclear Fusion (Touhou 11: Subterranean Animism) Guitar Tab

Submitted: Oct 04, 2011 by JakezuGD

0
Download | Listen
Game: Touhou 11: Subterranean Animism
Composer(s): ZUN
Style: Transcription
Series: Touhou

AutoScroll: Slow | Medium | Fast
Solar Sect of Mystic Wisdom ~ Nuclear Fusion
Touhou 11: Subterranean Animism
Composer: ZUN
Tabber: JakezuGD
Date: 04.10.2011 (EU) 10.04.2011 (US)

NOTE: Tempo is either 87 or 88 for original version, about 100 for guitar version (it sounds better)                 
NOTE2: the tab may be hard to read at places, Guitar Pro 5 was trippin' when exporting it (I edited out the worst fails)

Guitar

     Q    E.  E.  E.  E.    Q    E.  E.  E.  E.    Q    E.  E.  E.  E.    Q    E.  E.  E.  E.
e||-----------------------|----------------------|----------------------|----------------------|
B||-----------------------|----------------------|----------------------|----------------------|
G||*----------------------|----------------------|----------------------|----------------------|
D||*-5----9---8---7---4---|-5----9---8---7---4---|-5----9---8---7---4---|-5----9---8---7---4---|
A||--3----7---6---5---2---|-3----7---6---5---2---|-3----7---6---5---2---|-3----7---6---5---2---|
E||-----------------------|----------------------|----------------------|----------------------|                        

  Q    E.  E.  E.  E.     Q    E.  E.  E.  E.     Q    E.  E.  E.  E.     Q    E.  E.  E.  E.
-----------------------|-----------------------|-----------------------|-----------------------|
-----------------------|-----------------------|-----------------------|-----------------------|
-----------------------|-----------------------|--5----9---8---7---4---|--5----9---8---7---8---|
--5----9---8---7---4---|--5----9---8---7---4---|-----------------------|-----------------------|
--3----7---6---5---2---|--3----7---6---5---2---|-----------------------|-----------------------|
-----------------------|-----------------------|-----------------------|-----------------------|

  Q    E.  E.  E.  E.      E   E  S E.  E.  E.  E   
-----------------------|---------------------------|
-----------------------|---------------------------|
--5----9---8---7---8---|---------------------------|
-----------------------|--10--10----3---5---3---5--|
-----------------------|------------1---3---1---3--|
-----------------------|---------------------------|

Verse half notes may be dotted 1/4 notes, I dunno what ZUN's idea was            
  H         Q.     S S   E  E  S E.  E.  E.  E.
-----------------------|-------------------------|
-----------------------|-------------------------|
-----------------------|-------------------------|
------------3----------|---------5---5---5---5---|
--6---------1--------1-|-3--3----5---6---5---6---|
--4----------------3---|-------------------------|                  

 H        Q.     S S   E  E  S E.  E.  E.  E     H        Q.     S S  
---------------------|------------------------|----------------------|
---------------------|------------------------|----------------------|
---------------------|------------------------|----------------------|
----------3----------|---------3---5---3---5--|-----------3----------|
-6--------1--------1-|-3--3----1---3---1---3--|--6--------1--------1-|
-4---------------3---|------------------------|--4---------------3---|


 E  E S E.  E.  E.  E     H     Q.     S S    E  E  S E.  E.  E.  E   
-----------------------|-------------------|-------------------------|
-----------------------|-------------------|-------------------------|
-----------------------|-------------------|-------------------------|
--------5---5---5---5--|--------3----------|----------3-----------3--|
-3--3---5---6---5---6--|--6-----1--------1-|--3--3----1---6---6---1--|
-----------------------|--4------------3---|--------------4---4------|

              I couldn't quite grasp this part, can anyone help me here?
 E  E.  E.  E.  E.  E    E  E.  E.  E.  E.  E    E  E.  E.  Q    Q      
----------------------|-----------------------|----------------------|
----------------------|-----------------------|----------------------|
----------------------|-----------------------|------------------5\--|
-5--5---3-----------4-|--5--5---7---9---9---9-|--6--6---8---9--------|
-3--3---1---6---6---2-|--3--3---5---7---7---7-|--4--4---6---7--------|
------------4---4-----|-----------------------|----------------------|

  H        H           E  E  S S S Q    Q    S    H        Q.     E   
--------------------|--------------------------|---------------------|
--------------------|--------------------------|---------------------|
--------------------|--------------------------|--5------------------|
-----------5--------|-----0--2-3---3----2------|--3--------5---------|
--3--------3--------|--1-----------------------|-----------3------0--|
--1-----------------|--------------------------|---------------------|

  E.  E.  E  Q    Q     H        H           E  E  S S S Q    Q    S  
---------------------|--------------------|--------------------------|
---------------------|--------------------|--------------------------|
---------------------|--------------------|--------------------------|
---------------------|-----------5--------|-----0--2-3---3----2------|
--1-------1--6----5--|--3--------3--------|--1-----------------------|
------1------4----3--|--1-----------------|--------------------------|

  H        Q.     E     E.  E.  E  Q    Q       Q    E.  E.  E.  E.   
---------------------|-----------------------|-----------------------|
---------------------|-----------------------|-----------------------|
--5------------------|-----------------------|-----------------------|
--3--------5---------|-----------------------|-----------------------|
-----------3------0--|--1-------1--6----5----|--3----7---6---5---2---|
---------------------|------1------4----3----|--1----5---4---3---0---|

  Q    E.  E.  E.  E.    Q    E.  E.  E.  E.    Q    E.  E.  E.  E.   
-----------------------|----------------------|----------------------|
-----------------------|----------------------|----------------------|
-----------------------|----------------------|----------------------|
-----------------------|------7---6---5-------|------7---6---5---6---|
--3----7---6---5-------|-8----------------7---|-8--------------------|
--1----5---4---3---0---|----------------------|----------------------|
         
  Q.               S S
|----------------------|
|----------------------|
|----------------------|
|--------------------3-|
|------------------5---|
|----------------------|  

     E  E  S E.  E.  E.  E     H        Q.     S S    E  E  S E.  E.  E.  E     H        Q.     S S  5x
||--------------------------|----------------------|-------------------------|-----------------------||
||--------------------------|----------------------|-------------------------|-----------------------||
||*----------5---7---5---7--|-----------5----------|----------7---7---7---7--|-----------5----------*||
||*--5--5----3---5---3---5--|--8--------3--------3-|--5--5----7---8---7---8--|--8--------3--------3-*||
||--------------------------|--6---------------5---|-------------------------|--6---------------5----||
||--------------------------|----------------------|-------------------------|-----------------------||

  H        Q.     S S  5x  E  E  S E.  E.  E.  E     E  E.  E.  E.  E.  E   
-----------------------||-------------------------|------------------------|
-----------------------||-------------------------|------------------------|
-----------5----------*||----------5-----------5--|--7--7---5-----------6--|
--8--------3--------3-*||--5--5----3---8---8---3--|--5--5---3---8---8---4--|
--6---------------5----||--------------6---6------|-------------6---6------|
-----------------------||-------------------------|------------------------|

  E  E.  E.   E.   E.   E     E  E.   E.   Q    Q         H         H         
---------------------------|--------------------------|----------------------|
---------------------------|--------------------9\----|----------------------|
--7--7---9---11---11---11--|--8--8---10---11----------|----------------------|
--5--5---7----9----9----9--|--6--6----8----9----------|------------12--------|
---------------------------|--------------------------|--10--------10--------|
---------------------------|--------------------------|---8------------------|

  E  E  S  S S  Q    Q    S     H         Q.     E     E.  E.  E   Q     Q     
----------------------------|-----------------------|-------------------------|
----------------------------|-----------------------|-------------------------|
----------------------------|--12-------------------|-------------------------|
-----7--9-10---10----9------|--10--------12---------|-------------------------|
--8-------------------------|------------10------7--|--8-------8--13----12----|
----------------------------|-----------------------|------8------11----10----|

   H         H           E  E  S  S S  Q    Q    S  
----------------------|----------------------------|
----------------------|----------------------------|
----------------------|----------------------------|
------------12--------|-----7--9-10---10----9------|
--10--------10--------|--8-------------------------|
---8------------------|----------------------------|


 Play the last 2 quints as loud as possible and repeat from the top if you want to before the whole note.            
   H              Q.     E     E.  E.  E   Q     Q   (Opt)  W
----------------------------|--------------------------||--------------------|
----------------------------|--------------------------||--------------------|
--12------------------------|-------------------------*||--------------------|
--10-------------12---------|-------------------------*||--------------------|
-----------------10------7--|--8-------8--13----12-----||--10----------------|
----------------------------|------8------11----10-----||---8----------------|                     

   Q                 H.             
----------------------------------||
----------------------------------||
----------------------------------||
----------------------------------||
--10------------------------------||
---8------------------------------||




Duration Legend
---------------
W - whole
H - half
Q - quarter
E - 8th
S - 16th
T - 32nd
X - 64th
. - note dotted
|-n-|  - n-tuplets


Tablature Legend
----------------
L - tied note
x - dead note
g - grace note
(n) - ghost note
> - accentuded note
NH - natural harmonic
AH - artificial harmonic
TH - tapped harmonic
SH - semi harmonic
PH - pitch harmonic
h - hammer on
p - pull off
b - bend
br - bendRelease
pb - preBend
pbr - preBendRelease
brb - bendReleaseBend
\n/ - tremolo bar dip
\n - tremolo bar dive
-/n - tremolo bar Release up
/n\ - tremolo bar inverted dip
/n - tremolo bar return
-\n - tremolo bar Release down
S - shift slide
s - legato slide
/ -  slide into from below or out of upwards
\ -  slide into from above or out of downwards
~ - vibrato
W - wide vibrato
tr - trill
TP - tremolo picking
T - tapping
S - slap
P - pop
< - fade in
^ - brush up
v - brush down
Login or Register to remove this ad.

1 comment on Solar Sect of Mystic Wisdom ~ Nuclear Fusion

The current remaining fails after conversion from GP5 to TAB

- Bar length is inconsistent.
- Some rows have more bars while others have less bars.
- The first bar of the row under the 2nd verse is a duplicate of the last bar of the 2nd verse, ignore it.

Other than those, I couldn't find any more fails. Have fun playing!