Satori Maiden ~ 3rd Eye (Touhou 11: Subterranean Animism) Guitar Tab

Submitted: Nov 30, 2014 by Bessem (Last updated: Dec 21, 2014)

5
Average: 5 (6 votes)
Download | Listen
Game: Touhou 11: Subterranean Animism
Composer(s): ZUN
Style: Arrangement, Fingerstyle
Series: Touhou

This song is also called Satori's Theme

Click here for a video example.

AutoScroll: Slow | Medium | Fast
well , Satori's theme : one of the most different touhou songs in comparaison with the other ones
the two tracks play the same, just add a capo at the 1st fret and replay the same if you want to play with the original song
so please ENJOY "The Tab Even the Vengeful Spirits Fear"
and please Rate, Comment and Share !

Guitar 1 (Bm)



     ^                          ^           ^          
     Q.     S  S E  E  E  E     E  E  E  E  Q.     E   
E||--------------2--------2--|--3--------3--2------2--|
B||---------2h-3-------3-----|--------3---------------|
G||--4--------------4--------|-----4------------------|
D||--------------------------|------------------------|
A||--2-----------------------|------------------------|
E||--------------------------|--3-----------2---------|


  ^                         ^                          ^                        
  E  E  E  E  E.  E.  E     Q.     S  S E  S S Q       Q    E  S  S E.  E.  E   
--1--------1--0----------|--------------2----2------|-----------------------2--|
--------3---------3---2--|---------2h-3----5--------|-------2--3p-2-----3------|
-----4-------------------|--3------------------3----|--4------------4----------|
-------------------------|---------------------4----|--------------------------|
-------------------------|--------------4-----------|--2-----------------------|
--1-----------0----------|--2-----------------------|--------------------------|


  E  E  E  E  Q.     E      E   E  E   E   E   S S  S  S  S  S  
--3--5--7--3--2------2--|-----------------------------10-------|
------------------------|----------9------12-----9-12-------12-|
------------------------|--10-----------------10---------10----|
------------------------|------11-----11-----------------------|
------------------------|--------------------------------------|
--3-----------2---------|---9----------------------------------|


                     ^           ^                        
  Q.      S S  S  S  Q    S S    Q.     S  S E  E  E  E   
--9---------9-----------------|--------------2--------2--|
---------12---12-11-----------|---------2h-3-------3-----|
--------------------11----7-6-|--4--------------4--------|
------------------------------|--4-----------------------|
--9------------------9--------|--2-----------------------|
------------------------------|--------------------------|


  ^        ^  ^            ^           ^             ^           ^      ^     
  E  E  E  E  Q.     E     E  E  E  E  E.  E.  E     Q.     S  S E  S S Q     
--3--------3--2------2--|--1--------1--0----------|--------------2----2------|
--------3---------------|--------3---------3---2--|---------2h-3----5--------|
-----4------------------|-----4-------------------|--3------------------3----|
------------------------|-------------------------|---------------------4----|
------------------------|-------------------------|--------------4-----------|
--3-----------2---------|--1-----------0----------|--2-----------------------|


  ^            ^             ^           ^          
  Q    E  S  S E.  E.  E     E  E  E  E  Q.     E   
-----------------------2--|--3--5--7--3--2------2--|
-------2--3p-2-----3------|------------------------|
--4------------4----------|------------------------|
--------------------------|------------------------|
--2------------2----------|------------------------|
--------------------------|--3-----------2---------|


   ^                                     ^                  ^         
   E   E  E   E   E   S S  S  S  S  S    Q.      S S  S  S  Q    S S  
-----------------------------10-------|--9---------9-----------------|
----------9------12-----9-12-------12-|---------12---12-11-----------|
--10-----------------10---------10----|--------------------11----7-6-|
------11-----11-----------------------|------------------------------|
--------------------------------------|--9------------------9--------|
---9----------------------------------|------------------------------|


  ^        ^            ^                      ^          ^          
  H        Q    Q       H        Q    E  E     Q    E  E  Q    Q     
----------------2----|--1-------------------|--0----2--0------------|
-----------3---------|----------------2--3--|--0----------3----2----|
--4--------4---------|-----------4----------|-------------4---------|
---------------------|----------------------|-----------------------|
--2------------------|----------------------|-----------------------|
---------------------|--1-------------------|--0--------------------|


  ^                       ^              ^        ^                    
  H          Q.     E     Q    E  Q.     E  E     Q    E  Q.     Q     
-----------------------|-----------------------|----------------------|
--3--------2g0---------|-----------------------|-------0--2-----------|
-----------------------|--0-------0------3--4--|--3--------------3----|
--------------------4--|-------4---------------|----------------------|
--2--------------------|-----------------------|----------------------|
-----------------------|--3--------------2-----|--2-------------------|


  ^                      ^        ^           ^                        
  Q    E  Q.     Q       H        H           E  E  E  E  E  E  E  E   
-----------------0----|--2-----------------|--------------2-----------|
--0----2--3-----------|--------------------|--3-----------------3-----|
----------------------|-----------3--------|--4-----4--------4-----4--|
----------------------|--------------------|--4--4-----4--------------|
----------------------|--------------------|--2-----------------------|
--3-------------------|--0--------2--------|--------------------------|


  ^                          ^                        
  E  E  E  E  E  E  E  E     E  E  E  E  E  E  E  E   
--1-----------------------|--0-----2--0--------------|
--3-----3-----2-----3-----|--0-----------3-----2-----|
--4--4-----4-----4-----4--|--0--0-----------4-----4--|
--------------------------|--2-----------------------|
--------------------------|--------------------------|
--1-----------------------|--0-----------------------|


  ^                          ^                          ^                    
  E  E  E  E  E  E  E  E     Q    E  E  E  E  E   E     Q    E  Q.     Q     
--------------------------|--------------------------|----------------------|
--3-----3--2--------------|--------------------------|-------0--2-----------|
--4-----------4-----4-----|--0-------0-----0--3h--4--|--3--------------3----|
--4--4-----------4-----4--|-------4-----4------------|--4-------------------|
--2-----------------------|--------------------------|--4-------------------|
--------------------------|--3-----------------------|--2-------------------|


  ^              ^       ^          ^                             
  Q    E  Q.     Q       Q.     S S H           W                 
-----------------0----|--2------L------------|-------------------|
--0----2--3-----------|--0--------2----------|--0----------------|
--0-------------------|--0----------3--------|-------------------|
--0-------------------|--2------L---4--------|--4----------------|
----------------------|--2----------4--------|--2----------------|
--3--------------0----|--0----------2--------|-------------------|


  let me put my capo                                                    
  Q                  Q    H                                             
-----------------------------------|
--0--------------------------------|
-----------------------------------|
--4--------------------------------|
--2--------------------------------|
-----------------------------------|


Guitar 2 (Cm) (Capo 1)

  ^                        
  Q.     S  S E  E  E  E   
--------------2--------2--|
---------2h-3-------3-----|
--4--------------4--------|
--------------------------|
--2-----------------------|
--------------------------|


  ^           ^            ^                         ^                        
  E  E  E  E  Q.     E     E  E  E  E  E.  E.  E     Q.     S  S E  S S Q     
--3--------3--2------2--|--1--------1--0----------|--------------2----2------|
--------3---------------|--------3---------3---2--|---------2h-3----5--------|
-----4------------------|-----4-------------------|--3------------------3----|
------------------------|-------------------------|---------------------4----|
------------------------|-------------------------|--------------4-----------|
--3-----------2---------|--1-----------0----------|--2-----------------------|


  ^                                                 
  Q    E  S  S E.  E.  E     E  E  E  E  Q.     E   
-----------------------2--|--3--5--7--3--2------2--|
-------2--3p-2-----3------|------------------------|
--4------------4----------|------------------------|
--------------------------|------------------------|
--2-----------------------|------------------------|
--------------------------|--3-----------2---------|


                                                            ^         
   E   E  E   E   E   S S  S  S  S  S    Q.      S S  S  S  Q    S S  
-----------------------------10-------|--9---------9-----------------|
----------9------12-----9-12-------12-|---------12---12-11-----------|
--10-----------------10---------10----|--------------------11----7-6-|
------11-----11-----------------------|------------------------------|
--------------------------------------|--9------------------9--------|
---9----------------------------------|------------------------------|


  ^                          ^        ^  ^            ^           ^           
  Q.     S  S E  E  E  E     E  E  E  E  Q.     E     E  E  E  E  E.  E.  E   
--------------2--------2--|--3--------3--2------2--|--1--------1--0----------|
---------2h-3-------3-----|--------3---------------|--------3---------3---2--|
--4--------------4--------|-----4------------------|-----4-------------------|
--4-----------------------|------------------------|-------------------------|
--2-----------------------|------------------------|-------------------------|
--------------------------|--3-----------2---------|--1-----------0----------|


  ^           ^      ^       ^            ^             ^           ^          
  Q.     S  S E  S S Q       Q    E  S  S E.  E.  E     E  E  E  E  Q.     E   
--------------2----2------|-----------------------2--|--3--5--7--3--2------2--|
---------2h-3----5--------|-------2--3p-2-----3------|------------------------|
--3------------------3----|--4------------4----------|------------------------|
---------------------4----|--------------------------|------------------------|
--------------4-----------|--2------------2----------|------------------------|
--2-----------------------|--------------------------|--3-----------2---------|


   ^                                     ^                  ^         
   E   E  E   E   E   S S  S  S  S  S    Q.      S S  S  S  Q    S S  
-----------------------------10-------|--9---------9-----------------|
----------9------12-----9-12-------12-|---------12---12-11-----------|
--10-----------------10---------10----|--------------------11----7-6-|
------11-----11-----------------------|------------------------------|
--------------------------------------|--9------------------9--------|
---9----------------------------------|------------------------------|


  ^        ^            ^                      ^          ^          
  H        Q    Q       H        Q    E  E     Q    E  E  Q    Q     
----------------2----|--1-------------------|--0----2--0------------|
-----------3---------|----------------2--3--|--0----------3----2----|
--4--------4---------|-----------4----------|-------------4---------|
---------------------|----------------------|-----------------------|
--2------------------|----------------------|-----------------------|
---------------------|--1-------------------|--0--------------------|


  ^                       ^              ^        ^                    
  H          Q.     E     Q    E  Q.     E  E     Q    E  Q.     Q     
-----------------------|-----------------------|----------------------|
--3--------2g0---------|-----------------------|-------0--2-----------|
-----------------------|--0-------0------3--4--|--3--------------3----|
--------------------4--|-------4---------------|----------------------|
--2--------------------|-----------------------|----------------------|
-----------------------|--3--------------2-----|--2-------------------|


  ^                      ^        ^           ^                        
  Q    E  Q.     Q       H        H           E  E  E  E  E  E  E  E   
-----------------0----|--2-----------------|--------------2-----------|
--0----2--3-----------|--------------------|--3-----------------3-----|
----------------------|-----------3--------|--4-----4--------4-----4--|
----------------------|--------------------|--4--4-----4--------------|
----------------------|--------------------|--2-----------------------|
--3-------------------|--0--------2--------|--------------------------|


  ^                          ^                        
  E  E  E  E  E  E  E  E     E  E  E  E  E  E  E  E   
--1-----------------------|--0-----2--0--------------|
--3-----3-----2-----3-----|--0-----------3-----2-----|
--4--4-----4-----4-----4--|--0--0-----------4-----4--|
--------------------------|--2-----------------------|
--------------------------|--------------------------|
--1-----------------------|--0-----------------------|


  ^                          ^                          ^                    
  E  E  E  E  E  E  E  E     Q    E  E  E  E  E   E     Q    E  Q.     Q     
--------------------------|--------------------------|----------------------|
--3-----3--2--------------|--------------------------|-------0--2-----------|
--4-----------4-----4-----|--0-------0-----0--3h--4--|--3--------------3----|
--4--4-----------4-----4--|-------4-----4------------|--4-------------------|
--2-----------------------|--------------------------|--4-------------------|
--------------------------|--3-----------------------|--2-------------------|


  ^              ^       ^          ^                             
  Q    E  Q.     Q       Q.     S S H           W                 
-----------------0----|--2------L------------|-------------------|
--0----2--3-----------|--0--------2----------|--0----------------|
--0-------------------|--0----------3--------|-------------------|
--0-------------------|--2------L---4--------|--4----------------|
----------------------|--2----------4--------|--2----------------|
--3--------------0----|--0----------2--------|-------------------|


  Q    Q    H          
---------------------||
--0------------------||
---------------------||
--4------------------||
--2------------------||
---------------------||
Login or Register to remove this ad.

2 comments on Satori Maiden ~ 3rd Eye

This is my favorite 2hu song.

5

This is my favorite 2hu song.

This is a beautiful thing. I

This is a beautiful thing. I haven't touched a guitar in months, and this is a perfect way to get reacquainted.