Ridiculous Game (Touhou 10.5: Scarlet Weather Rhapsody) Bass/Guitar Tab

Submitted: Apr 20, 2015 by Bessem

5
Average: 5 (1 vote)
Download | Listen
Game: Touhou 10.5: Scarlet Weather Rhapsody
Composer(s): ZUN
Style: 2 or more instruments, Transcription
Series: Touhou

This song is also called Youkai Mountain Theme

AutoScroll: Slow | Medium | Fast
please Rate

                                Ridiculous Game                                 


                                                                             Zun
Lead Guitar



     W                   W                   W                 
E||-------------------|-------------------|-------------------|
B||-------------------|-------------------|-------------------|
G||-------------------|-------------------|-------------------|
D||-------------------|-------------------|-------------------|
A||-------------------|-------------------|-------------------|
E||-------------------|-------------------|-------------------|


  W                   H        S S  S   S S   S   S S   
-------------------|--------------------------------9S-|
-------------------|----------------------9h-10h-11----|
-------------------|-------------7h-9h-10--------------|
-------------------|-----------------------------------|
-------------------|-----------------------------------|
-------------------|-----------------------------------|


     H         E.   E.   E     H         Q     Q        Q    H.            
|---12--------13---12-------|--9--------10----------|---------------------|
|-----------------------10--|-----------------11----|--10-----------------|
|*--------------------------|-----------------------|--------9------------|
|*--------------------------|-----------------------|---------------------|
|---------------------------|-----------------------|---------------------|
|---------------------------|-----------------------|---------------------|


  H        S   S S   S   S   S S   S     H         E.   E.   E   
-------------------------------9h-10-|--12--------10---12---13--|
-----------------8h-10h-11p-10-------|--------------------------|
--L--------9h-10---------------------|--------------------------|
-------------------------------------|--------------------------|
-------------------------------------|--------------------------|
-------------------------------------|--------------------------|


      E.   E.   E   E.   E.   E      W                 
--16g17---16---17--18---17---16--|--17----------------|
---------------------------------|--------------------|
---------------------------------|--------------------|
---------------------------------|--------------------|
---------------------------------|--------------------|
---------------------------------|--------------------|


  S H        S  S   S S   S   S S     H         E.   E.   E   
--L-----------------------------9-|--12--------13---12-------|
----------------------9h-10h-11---|----------------------10--|
-------------7h-9h-10-------------|--------------------------|
----------------------------------|--------------------------|
----------------------------------|--------------------------|
----------------------------------|--------------------------|


  H         Q     Q        Q    H.            
--9--------10----------|---------------------|
-----------------11----|--10-----------------|
-----------------------|--------9------------|
-----------------------|---------------------|
-----------------------|---------------------|
-----------------------|---------------------|


  H        S   S S   S   S   S S   S     H         E.   E.   E   
-------------------------------9h-10-|--12--------10---12---13--|
-----------------8h-10h-11p-10-------|--------------------------|
--L--------9h-10---------------------|--------------------------|
-------------------------------------|--------------------------|
-------------------------------------|--------------------------|
-------------------------------------|--------------------------|


      E.   E.   E   E.   E.   E      W                   S H.           E.   
--16g17---16---17--18---17---16--|--17----------------|--L------------------|
---------------------------------|--------------------|---------------------|
---------------------------------|--------------------|---------------------|
---------------------------------|--------------------|---------------------|
---------------------------------|--------------------|---------------------|
---------------------------------|--------------------|---------------------|


  W                   W                   W                   W                 
-------------------|-------------------|-------------------|-------------------|
-------------------|-------------------|-------------------|-------------------|
-------------------|-------------------|-------------------|-------------------|
-------------------|-------------------|-------------------|-------------------|
-------------------|-------------------|-------------------|-------------------|
-------------------|-------------------|-------------------|-------------------|


  W                   W                   W                 
-------------------|-------------------|-------------------|
-------------------|-------------------|-------------------|
-------------------|-------------------|-------------------|
-------------------|-------------------|-------------------|
-------------------|-------------------|-------------------|
-------------------|-------------------|-------------------|


  H.           Q        E  S  E  S  S  S S  S S  Q    S  
--------------------|------------7h-8-10-8-10---12----L-|
--------------------|--10----10-------------------------|
---------------9----|------9----------------------------|
--------------------|-----------------------------------|
--------------------|-----------------------------------|
--------------------|-----------------------------------|


   E   S  E   S S  S   S   S S  Q    S  
--13--12-10--10-8-10h-11h-12-----------|
-------------------------------12----L-|
---------------------------------------|
---------------------------------------|
---------------------------------------|
---------------------------------------|


   E  S   E  S  S S  S  S S  E    S  S  S     E.   E.   E   Q     T   T  E.   
-------------7h-8-7h-8p-7-8-10s--12-------|----------------------------------|
--10--9h-10-------------------------13-10-|--12---13---12--10----12p-10p-9---|
------------------------------------------|----------------------------------|
------------------------------------------|----------------------------------|
------------------------------------------|----------------------------------|
------------------------------------------|----------------------------------|


   E  S E  S S S S  S S E  S E      E  S  E  S  S  S  Q.      S  S  
--------------------------------|------------7h-8-10-12------12-12-|
--10-------------8-10-----------|--10----10------------------------|
------9-9--9-8-9--------9--9-9--|------9---------------------------|
--------------------------------|----------------------------------|
--------------------------------|----------------------------------|
--------------------------------|----------------------------------|


   S  S S  S S  S S  S   S   S S  S S  S S  S  
--13-12---10--------10S-11S-12----------------|
---------------13----------------13---12------|
-------------------------------------------12-|
----------------------------------------------|
----------------------------------------------|
----------------------------------------------|


  S   S   S E  S   S S   S  S S  S S S S S  
-------------------------------------------|
--9h-10h-12----------9h-10-10---10---------|
------------9--9h-10-----------------9-9-9-|
-------------------------------------------|
-------------------------------------------|
-------------------------------------------|


   E  S  E  S  S  S S  S  S  Q    S     E   S  E   S S  S   S   S S  Q    S  
------------7h-8-10-8-10S---12----L-|--13--12-10--10-8-10S-11S-12-----------|
--10----10--------------------------|-------------------------------12----L-|
------9-----------------------------|---------------------------------------|
------------------------------------|---------------------------------------|
------------------------------------|---------------------------------------|
------------------------------------|---------------------------------------|


   E  S   E  S  S S  S  S S  E    S  S  S     E.   E.   E   Q     T   T  E.   
-------------7h-8-7h-8p-7-8-10S--12-------|----------------------------------|
--10--9h-10-------------------------13-10-|--12---13---12--10----12p-10p-9---|
------------------------------------------|----------------------------------|
------------------------------------------|----------------------------------|
------------------------------------------|----------------------------------|
------------------------------------------|----------------------------------|


   E  S E  S S S S   S S E  S E      E  S  E  S  S  S   Q.      S  S  
---------------------------------|------------7h-8-10S-12------12-12-|
--10-------------8h-10-----------|--10----10-------------------------|
------9-9--9-8-9---------9--9-9--|------9----------------------------|
---------------------------------|-----------------------------------|
---------------------------------|-----------------------------------|
---------------------------------|-----------------------------------|


   S  S S  S S S S  S   S   S S  E   S  S S  
--13-12---10---8---10S-11S-12---15--12-10-8-|
--------------------------------------------|
--------------------------------------------|
--------------------------------------------|
--------------------------------------------|
--------------------------------------------|


  S  S  S S   S  S S S S S S  S S S   S S      W                 
--7h-8p-7--------------8-7-----------------|--------------------|
----------9h-10p-9---9-------10---------9S-|--10----------------|
-------------------9--------------9h-10----|--------------------|
-------------------------------------------|--------------------|
-------------------------------------------|--------------------|
-------------------------------------------|--------------------|


  Q    S  S  S  S  S  S  S  S S  S S  S     Q    H.            
------------------10-12-13----9-10------|---------------------|
--L------10-11-13----------11------9-11-|--10-----------------|
----------------------------------------|--------9------------|
----------------------------------------|---------------------|
----------------------------------------|---------------------|
----------------------------------------|---------------------|


  W                   W                 
-------------------|--5----------------|
-------------------|-------------------|
--L----------------|-------------------|
-------------------|-------------------|
-------------------|-------------------|
-------------------|-------------------|


  Q    S  S  S  S  S  S  S  S S  S S  S     Q     H.            
--L---------------10-12-13----9-10------|--------12------------|
---------10-11-13----------11------9-11-|--10------------------|
----------------------------------------|----------------------|
----------------------------------------|----------------------|
----------------------------------------|----------------------|
----------------------------------------|----------------------|


  H        S S S  S S  S  S S    
--L-------------------------9--||
--------------------9-10-11----||
-------------7-9-10-----------*||
------------------------------*||
-------------------------------||
-------------------------------||




Second Guitar



     W                   W                   W                 
E||-------------------|-------------------|-------------------|
B||-------------------|-------------------|-------------------|
G||-------------------|-------------------|-------------------|
D||-------------------|-------------------|-------------------|
A||-------------------|-------------------|-------------------|
E||-------------------|-------------------|-------------------|


  W                   W                     W                 
-------------------|-------------------||--------------------|
-------------------|-------------------||--------------------|
-------------------|-------------------||*-------------------|
-------------------|-------------------||*-------------------|
-------------------|-------------------||--------------------|
-------------------|-------------------||--------------------|


  W                   H        S S S S S S S S  
-------------------|-------------0-1-0---0---0-|
-------------------|-----------3-------2-------|
-------------------|-----------------------3---|
-------------------|---------------------------|
-------------------|---------------------------|
-------------------|---------------------------|


  S S S S S S S S S S S S S S E     W                   W                 
----0---0---0---0----------------|-------------------|-------------------|
------------------2-3------------|-------------------|-------------------|
--2---1---2---3-------3-1-2------|-------------------|-------------------|
----------------------------3-2--|-------------------|-------------------|
---------------------------------|-------------------|-------------------|
---------------------------------|-------------------|-------------------|


  H        S S  S  S S  S S S    S S S S S S S S S S S S S S S S  
----------------------------4-|--5-5-4-6-5-4-6-5-4-6-5-4-6-5-4-6-|
--------------------------5---|----------------------------------|
---------------------6h-7-----|----------------------------------|
-------------5h-7h-8----------|----------------------------------|
------------------------------|----------------------------------|
------------------------------|----------------------------------|


  S S S H.           S    W                   H        S S S S S S S S  
--5-5-3----------------|-------------------|---------------------0---0-|
-----------------------|-------------------|-----------3-5-6-5---------|
-----------------------|-------------------|-------------------6---3---|
-----------------------|-------------------|---------------------------|
-----------------------|-------------------|---------------------------|
-----------------------|-------------------|---------------------------|


  S S S S S S S S S S S S S S E     W                   W                 
----0---0---0---0----------------|-------------------|-------------------|
------------------2-3------------|-------------------|-------------------|
--2---1---2---3-------3-1-2------|-------------------|-------------------|
----------------------------3-2--|-------------------|-------------------|
---------------------------------|-------------------|-------------------|
---------------------------------|-------------------|-------------------|


  H        S S S S S S S S    S S S S S S S S S S S S S S S S  
-------------------------4-|--5-5-4-6-5-4-6-5-4-6-5-4-6-5-4-6-|
-----------------------5---|----------------------------------|
-------------------6-7-----|----------------------------------|
-------------5-7-8---------|----------------------------------|
---------------------------|----------------------------------|
---------------------------|----------------------------------|


  S S S S S S S S S S S S S E.     S S S S S S S S S S S S S E.   
--------------------------------|--------------------------------|
--5-5---5---5---6-5---4---5-----|--5-5---5---5---6-5---6---5-----|
--4-4---4---4---5-4---3---4-----|--4-4---4---4---5-4---5---4-----|
--2-2---2---2---3-2---1---2-----|--2-2---2---2---3-2---3---2-----|
--------------------------------|--------------------------------|
--------------------------------|--------------------------------|


  S S S S S S S S S S S S S E.     S S S S S S S S S S S S S S S S  
--------------------------------|------------------------------0-1-|
--5-5---5---5---6-5---4---5-----|--5-5---5---5---6-5-----0-1-3-----|
--4-4---4---4---5-4---3---4-----|--4-4---4---4---5-4-1-2-----------|
--2-2---2---2---3-2---1---2-----|--2-2---2---2---3-2---------------|
--------------------------------|----------------------------------|
--------------------------------|----------------------------------|


  S S S S S S S S S S S S S E.     S S S S S S S S S S S S S E.   
--4-4---4---4---5-4---3---4-----|--4-4---4---4---5-7---5---4-----|
--5-5---5---5---6-5---4---5-----|--5-5---5---5---6-5---6---5-----|
--4-4---4---4---5-4---3---4-----|--4-4---4---4---5-4---5---4-----|
--------------------------------|--------------------------------|
--------------------------------|--------------------------------|
--------------------------------|--------------------------------|


  S S S S S S S S S S S S S E.     S S S S S S S S S S S S S S S S  
--4-4---4---4---5-4---3---4-----|--4-4---4---4---5-7-7-5-----------|
--5-5---5---5---6-5---4---5-----|--5-5---5---5---6-------6-5-3-----|
--4-4---4---4---5-4---3---4-----|--4-4---4---4---5-------------5-4-|
--------------------------------|----------------------------------|
--------------------------------|----------------------------------|
--------------------------------|----------------------------------|


  W                   W                   W                   W                 
-------------------|-------------------|-------------------|-------------------|
-------------------|-------------------|-------------------|-------------------|
-------------------|-------------------|-------------------|-------------------|
-------------------|-------------------|-------------------|-------------------|
-------------------|-------------------|-------------------|-------------------|
-------------------|-------------------|-------------------|-------------------|


  W                   W                   W                   W                 
-------------------|-------------------|-------------------|-------------------|
-------------------|-------------------|-------------------|-------------------|
-------------------|-------------------|-------------------|-------------------|
-------------------|-------------------|-------------------|-------------------|
-------------------|-------------------|-------------------|-------------------|
-------------------|-------------------|-------------------|-------------------|


  E   E   E   E  S S  S  E  S S S     E  S  E   S S   S   S S  S  E  S S S   
-----12--11--12--7-7h-8-10--8-7---|------------------------------10--8-7----|
--------------------------------8-|--10--8--------9h-10h-12-9-12---------9h-|
----------------------------------|--------10--10---------------------------|
----------------------------------|-----------------------------------------|
----------------------------------|-----------------------------------------|
----------------------------------|-----------------------------------------|


   E  S E  S S   S   S  S  S  E   S  S  S     E.  E.  E  Q      Q     
------7-8--7-8h-10h-12-10-12-13--15-12----|--10---8---7--8S----12----|
--10-----------------------------------13-|--------------------------|
------------------------------------------|--------------------------|
------------------------------------------|--------------------------|
------------------------------------------|--------------------------|
------------------------------------------|--------------------------|


  S  S  S  S  S  S  S  S S S S S S S S S  
----12-10-12----10-------7-8-------------|
-------------13----12-10-----8-------8---|
-------------------------------7-9-7---7-|
-----------------------------------------|
-----------------------------------------|
-----------------------------------------|


   S S  S S  S  S  S  S  S  S  S  S  S  S  E   
---------------------10-12-12-12-12-12-12-12--|
-----8-10-8-10-12-13--------------------------|
--10------------------------------------------|
----------------------------------------------|
----------------------------------------------|
----------------------------------------------|


   S S S S S S S S S S S  E  S S  S    S   S  S S   S  S S S S S S S S S S S  
--10-8---7---5---7-8-8---12--8-7----|----------------------------------------|
---------------------------------10-|--8h-10p-8----------0-------------------|
------------------------------------|-----------9h-10p-9---1-2-2---2---------|
------------------------------------|----------------------------------2-3-2-|
------------------------------------|----------------------------------------|
------------------------------------|----------------------------------------|


  Q    Q    Q    Q       Q    Q    S S  S S  S S  S S    Q    Q    Q    Q     
------------0---------|-------------------------------|----------------------|
--2----3---------3----|--2-----------1h-3------1h-3---|------------2----3----|
----------------------|-------2----3------2h-3------2-|--2----3--------------|
----------------------|-------------------------------|----------------------|
----------------------|-------------------------------|----------------------|
----------------------|-------------------------------|----------------------|


  Q    Q    Q    Q       Q    Q    Q    Q       Q    Q    S S S S S S S S  
--0---------1----0----|------------0---------|----------------------------|
----------------------|--2----3---------3----|--2-----------1-3-----1-3---|
-------2--------------|----------------------|-------2----3-----2-3-----2-|
----------------------|----------------------|----------------------------|
----------------------|----------------------|----------------------------|
----------------------|----------------------|----------------------------|


  Q    Q    Q    Q       Q    Q    Q.     E     
----------------------|--0---------5----------||
------------2----3----|-----------------------||
--2----3--------------|-------2--------------*||
----------------------|----------------------*||
----------------------|-----------------------||
----------------------|-----------------------||




Rythmic Guitar (Fingers)



             E  S S S E  S S E  S S E  S    E  S S S E  S S E  S S E  S  
E||-------|--0--0-0-0-0--0-1-1--1-1-1--1-|--0--0-0-0-0--0-1-1--1-1-1--1-|
B||-------|--2--2-2-2-2--2-3-3--3-3-3--3-|--2--2-2-2-2--2-3-3--3-3-3--3-|
G||-------|--2--2-2-2-2--2-3-3--3-3-3--3-|--2--2-2-2-2--2-3-3--3-3-3--3-|
D||-------|--2--2-2-2-2--2-3-3--3-3-3--3-|--2--2-2-2-2--2-3-3--3-3-3--3-|
A||-------|--0--0-0-0-0--0-0-0--0-0-0--0-|--0--0-0-0-0--0-0-0--0-0-0--0-|
E||-------|------------------------------|------------------------------|


  E  S S S E  S S E  S S E  S    E  S S S E  S S E  S S E  S  
--0--0-0-0-0--0-1-1--1-1-1--1-|--0--0-0-0-0--0-1-1--1-1-1--1-|
--2--2-2-2-2--2-3-3--3-3-3--3-|--2--2-2-2-2--2-3-3--3-3-3--3-|
--2--2-2-2-2--2-3-3--3-3-3--3-|--2--2-2-2-2--2-3-3--3-3-3--3-|
--2--2-2-2-2--2-3-3--3-3-3--3-|--2--2-2-2-2--2-3-3--3-3-3--3-|
--0--0-0-0-0--0-0-0--0-0-0--0-|--0--0-0-0-0--0-0-0--0-0-0--0-|
------------------------------|------------------------------|


    E  S S S E  S S E  S S E  S    E  S S S E  S S E  S S E  S  
|---0--0-0-0-0--0-1-1--1-1-1--1-|--0--0-0-0-0--0-1-1--1-1-1--1-|
|---2--2-2-2-2--2-3-3--3-3-3--3-|--2--2-2-2-2--2-3-3--3-3-3--3-|
|*--2--2-2-2-2--2-3-3--3-3-3--3-|--2--2-2-2-2--2-3-3--3-3-3--3-|
|*--2--2-2-2-2--2-3-3--3-3-3--3-|--2--2-2-2-2--2-3-3--3-3-3--3-|
|---0--0-0-0-0--0-0-0--0-0-0--0-|--0--0-0-0-0--0-0-0--0-0-0--0-|
|-------------------------------|------------------------------|


  E  S S S E  S S E  S S E  S    E  S S S E  S S E  S S E  S  
--0--0-0-0-0--0-1-1--1-1-1--1-|--0--0-0-0-0--0-1-1--1-1-1--1-|
--2--2-2-2-2--2-3-3--3-3-3--3-|--2--2-2-2-2--2-3-3--3-3-3--3-|
--2--2-2-2-2--2-3-3--3-3-3--3-|--2--2-2-2-2--2-3-3--3-3-3--3-|
--2--2-2-2-2--2-3-3--3-3-3--3-|--2--2-2-2-2--2-3-3--3-3-3--3-|
--0--0-0-0-0--0-0-0--0-0-0--0-|--0--0-0-0-0--0-0-0--0-0-0--0-|
------------------------------|------------------------------|


  E  S S S E  S S E  S S E  S    E  S S S E  S S E  S S E  S  
--0--0-0-0-0--0-1-1--1-1-1--1-|--0--0-0-0-0--0-1-1--1-1-1--1-|
--2--2-2-2-2--2-3-3--3-3-3--3-|--2--2-2-2-2--2-3-3--3-3-3--3-|
--2--2-2-2-2--2-3-3--3-3-3--3-|--2--2-2-2-2--2-3-3--3-3-3--3-|
--2--2-2-2-2--2-3-3--3-3-3--3-|--2--2-2-2-2--2-3-3--3-3-3--3-|
--0--0-0-0-0--0-0-0--0-0-0--0-|--0--0-0-0-0--0-0-0--0-0-0--0-|
------------------------------|------------------------------|


  E  S S S E  S S E  S S E  S    E  S S S E  S S E  S S E  S  
--0--0-0-0-0--0-1-1--1-1-1--1-|--0--0-0-0-0--0-1-1--1-1-1--1-|
--2--2-2-2-2--2-3-3--3-3-3--3-|--2--2-2-2-2--2-3-3--3-3-3--3-|
--2--2-2-2-2--2-3-3--3-3-3--3-|--2--2-2-2-2--2-3-3--3-3-3--3-|
--2--2-2-2-2--2-3-3--3-3-3--3-|--2--2-2-2-2--2-3-3--3-3-3--3-|
--0--0-0-0-0--0-0-0--0-0-0--0-|--0--0-0-0-0--0-0-0--0-0-0--0-|
------------------------------|------------------------------|


  E  S S S E  S S E  S S E  S    E  S S S E  S S E  S S E  S  
--0--0-0-0-0--0-1-1--1-1-1--1-|--0--0-0-0-0--0-1-1--1-1-1--1-|
--2--2-2-2-2--2-3-3--3-3-3--3-|--2--2-2-2-2--2-3-3--3-3-3--3-|
--2--2-2-2-2--2-3-3--3-3-3--3-|--2--2-2-2-2--2-3-3--3-3-3--3-|
--2--2-2-2-2--2-3-3--3-3-3--3-|--2--2-2-2-2--2-3-3--3-3-3--3-|
--0--0-0-0-0--0-0-0--0-0-0--0-|--0--0-0-0-0--0-0-0--0-0-0--0-|
------------------------------|------------------------------|


  E  S S S E  S S E  S S E  S    E  S S S E  S S E  S S E  S  
--0--0-0-0-0--0-1-1--1-1-1--1-|--0--0-0-0-0--0-1-1--1-1-1--1-|
--2--2-2-2-2--2-3-3--3-3-3--3-|--2--2-2-2-2--2-3-3--3-3-3--3-|
--2--2-2-2-2--2-3-3--3-3-3--3-|--2--2-2-2-2--2-3-3--3-3-3--3-|
--2--2-2-2-2--2-3-3--3-3-3--3-|--2--2-2-2-2--2-3-3--3-3-3--3-|
--0--0-0-0-0--0-0-0--0-0-0--0-|--0--0-0-0-0--0-0-0--0-0-0--0-|
------------------------------|------------------------------|


  E  S S S E  S S E  S S E  S    E  S S S E  S S E  S S E  S  
--0--0-0-0-0--0-1-1--1-1-1--1-|--0--0-0-0-0--0-1-1--1-1-1--1-|
--2--2-2-2-2--2-3-3--3-3-3--3-|--2--2-2-2-2--2-3-3--3-3-3--3-|
--2--2-2-2-2--2-3-3--3-3-3--3-|--2--2-2-2-2--2-3-3--3-3-3--3-|
--2--2-2-2-2--2-3-3--3-3-3--3-|--2--2-2-2-2--2-3-3--3-3-3--3-|
--0--0-0-0-0--0-0-0--0-0-0--0-|--0--0-0-0-0--0-0-0--0-0-0--0-|
------------------------------|------------------------------|


  E  S S S E  S S E  S S E  S    E  S S S E  S S E  S S E  S  
--0--0-0-0-0--0-1-1--1-1-1--1-|--0--0-0-0-0--0-1-1--1-1-1--1-|
--2--2-2-2-2--2-3-3--3-3-3--3-|--2--2-2-2-2--2-3-3--3-3-3--3-|
--2--2-2-2-2--2-3-3--3-3-3--3-|--2--2-2-2-2--2-3-3--3-3-3--3-|
--2--2-2-2-2--2-3-3--3-3-3--3-|--2--2-2-2-2--2-3-3--3-3-3--3-|
--0--0-0-0-0--0-0-0--0-0-0--0-|--0--0-0-0-0--0-0-0--0-0-0--0-|
------------------------------|------------------------------|


  S S S S S S S S S S S S S E.     S S S S S S S S S S S S S E.   
--0-0---0---0---1-0---0---0-----|--0-0---0---0---1-3---1---0-----|
--0-0---0---0---1-0---0---0-----|--0-0---0---0---1-3---1---0-----|
--1-1---1---1---2-1---1---1-----|--1-1---1---1---2-4---2---1-----|
--2-2---2---2---3-2---2---2-----|--2-2---2---2---3-5---3---2-----|
--2-2---2---2---3-2---2---2-----|--2-2---2---2---3-5---3---2-----|
--0-0---0---0---1-0---0---0-----|--0-0---0---0---1-3---1---0-----|


  S S S S S S S S S S S S S E.     S S S S S S S S S S S S S E.   
--0-0---0---0---1-0---0---0-----|--0-0---0---0---1-3---1---0-----|
--0-0---0---0---1-0---0---0-----|--0-0---0---0---1-3---1---0-----|
--1-1---1---1---2-1---1---1-----|--1-1---1---1---2-4---2---1-----|
--2-2---2---2---3-2---2---2-----|--2-2---2---2---3-5---3---2-----|
--2-2---2---2---3-2---2---2-----|--2-2---2---2---3-5---3---2-----|
--0-0---0---0---1-0---0---0-----|--0-0---0---0---1-3---1---0-----|


  S S S S S S S S S S S S S E.     S S S S S S S S S S S S S E.   
--0-0---0---0---1-0---0---0-----|--0-0---0---0---1-3---1---0-----|
--0-0---0---0---1-0---0---0-----|--0-0---0---0---1-3---1---0-----|
--1-1---1---1---2-1---1---1-----|--1-1---1---1---2-4---2---1-----|
--2-2---2---2---3-2---2---2-----|--2-2---2---2---3-5---3---2-----|
--2-2---2---2---3-2---2---2-----|--2-2---2---2---3-5---3---2-----|
--0-0---0---0---1-0---0---0-----|--0-0---0---0---1-3---1---0-----|


  S S S S S S S S S S S S S E.     S S S S S S S S S S S S S E.   
--0-0---0---0---1-0---0---0-----|--0-0---0---0---1-3---1---0-----|
--0-0---0---0---1-0---0---0-----|--0-0---0---0---1-3---1---0-----|
--1-1---1---1---2-1---1---1-----|--1-1---1---1---2-4---2---1-----|
--2-2---2---2---3-2---2---2-----|--2-2---2---2---3-5---3---2-----|
--2-2---2---2---3-2---2---2-----|--2-2---2---2---3-5---3---2-----|
--0-0---0---0---1-0---0---0-----|--0-0---0---0---1-3---1---0-----|


  E  S S S E  S S E  S S E  S    E  S S S E  S S E  S S E  S  
--5--5-5-5-5--5-3-3--3-3-3--3-|--1--1-1-1-1--1-0-0--0-0-0--0-|
--5--5-5-5-5--5-3-3--3-3-3--3-|--1--1-1-1-1--1-0-0--0-0-0--0-|
--5--5-5-5-5--5-4-4--4-4-4--4-|--2--2-2-2-2--2-1-1--1-1-1--1-|
--7--7-7-7-7--7-5-5--5-5-5--5-|--3--3-3-3-3--3-2-2--2-2-2--2-|
--7--7-7-7-7--7-5-5--5-5-5--5-|--3--3-3-3-3--3-2-2--2-2-2--2-|
--5--5-5-5-5--5-3-3--3-3-3--3-|--1--1-1-1-1--1-0-0--0-0-0--0-|


  E  S S S E  S S E  S S E  S    E  S S S E  S S E  S S E  S  
--5--5-5-5-5--5-3-3--3-3-3--3-|--1--1-1-1-1--1-0-0--0-0-0--0-|
--5--5-5-5-5--5-3-3--3-3-3--3-|--1--1-1-1-1--1-0-0--0-0-0--0-|
--5--5-5-5-5--5-4-4--4-4-4--4-|--2--2-2-2-2--2-1-1--1-1-1--1-|
--7--7-7-7-7--7-5-5--5-5-5--5-|--3--3-3-3-3--3-2-2--2-2-2--2-|
--7--7-7-7-7--7-5-5--5-5-5--5-|--3--3-3-3-3--3-2-2--2-2-2--2-|
--5--5-5-5-5--5-3-3--3-3-3--3-|--1--1-1-1-1--1-0-0--0-0-0--0-|


  E  S S S E  S S E  S S E  S    E  S S S E  S S E  S S E  S  
--5--5-5-5-5--5-3-3--3-3-3--3-|--1--1-1-1-1--1-0-0--0-0-0--0-|
--5--5-5-5-5--5-3-3--3-3-3--3-|--1--1-1-1-1--1-0-0--0-0-0--0-|
--5--5-5-5-5--5-4-4--4-4-4--4-|--2--2-2-2-2--2-1-1--1-1-1--1-|
--7--7-7-7-7--7-5-5--5-5-5--5-|--3--3-3-3-3--3-2-2--2-2-2--2-|
--7--7-7-7-7--7-5-5--5-5-5--5-|--3--3-3-3-3--3-2-2--2-2-2--2-|
--5--5-5-5-5--5-3-3--3-3-3--3-|--1--1-1-1-1--1-0-0--0-0-0--0-|


  E  S S S E  S S E  S S E  S    E  S S S E  S S E  Q    S  
--5--5-5-5-5--5-3-3--3-3-3--3-|--0--0-0-0-0--0-5-5--5----L-|
--6--6-6-6-6--6-5-5--5-5-5--5-|--0--0-0-0-0--0-5-5--5----L-|
--7--7-7-7-7--7-5-5--5-5-5--5-|--1--1-1-1-1--1-5-5--5----L-|
--7--7-7-7-7--7-5-5--5-5-5--5-|--2--2-2-2-2--2-7-7--7----L-|
--5--5-5-5-5--5-3-3--3-3-3--3-|--2--2-2-2-2--2-7-7--7----L-|
------------------------------|--0--0-0-0-0--0-5-5--5----L-|


  E  S S S E  S S E  S S E  S    E  S S S E  S S E  S S E  S  
--5--5-5-5-5--5-3-3--3-3-3--3-|--1--1-1-1-1--1-0-0--0-0-0--0-|
--5--5-5-5-5--5-3-3--3-3-3--3-|--1--1-1-1-1--1-0-0--0-0-0--0-|
--5--5-5-5-5--5-4-4--4-4-4--4-|--2--2-2-2-2--2-1-1--1-1-1--1-|
--7--7-7-7-7--7-5-5--5-5-5--5-|--3--3-3-3-3--3-2-2--2-2-2--2-|
--7--7-7-7-7--7-5-5--5-5-5--5-|--3--3-3-3-3--3-2-2--2-2-2--2-|
--5--5-5-5-5--5-3-3--3-3-3--3-|--1--1-1-1-1--1-0-0--0-0-0--0-|


  E  S S S E  S S E  S S E  S    E  S S S E  S S E  S S E  S  
--5--5-5-5-5--5-3-3--3-3-3--3-|--1--1-1-1-1--1-0-0--0-0-0--0-|
--5--5-5-5-5--5-3-3--3-3-3--3-|--1--1-1-1-1--1-0-0--0-0-0--0-|
--5--5-5-5-5--5-4-4--4-4-4--4-|--2--2-2-2-2--2-1-1--1-1-1--1-|
--7--7-7-7-7--7-5-5--5-5-5--5-|--3--3-3-3-3--3-2-2--2-2-2--2-|
--7--7-7-7-7--7-5-5--5-5-5--5-|--3--3-3-3-3--3-2-2--2-2-2--2-|
--5--5-5-5-5--5-3-3--3-3-3--3-|--1--1-1-1-1--1-0-0--0-0-0--0-|


  E  S S S E  S S E  S S E  S    E  S S S E  S S E  S S E  S  
--5--5-5-5-5--5-3-3--3-3-3--3-|--1--1-1-1-1--1-0-0--0-0-0--0-|
--5--5-5-5-5--5-3-3--3-3-3--3-|--1--1-1-1-1--1-0-0--0-0-0--0-|
--5--5-5-5-5--5-4-4--4-4-4--4-|--2--2-2-2-2--2-1-1--1-1-1--1-|
--7--7-7-7-7--7-5-5--5-5-5--5-|--3--3-3-3-3--3-2-2--2-2-2--2-|
--7--7-7-7-7--7-5-5--5-5-5--5-|--3--3-3-3-3--3-2-2--2-2-2--2-|
--5--5-5-5-5--5-3-3--3-3-3--3-|--1--1-1-1-1--1-0-0--0-0-0--0-|


  E  S S S E  S S E  S S E  S    E  S S S E  S S E  Q    S  
--5--5-5-5-5--5-3-3--3-3-3--3-|--0--0-0-0-0--0-5-5--5----L-|
--6--6-6-6-6--6-5-5--5-5-5--5-|--0--0-0-0-0--0-5-5--5----L-|
--7--7-7-7-7--7-5-5--5-5-5--5-|--1--1-1-1-1--1-5-5--5----L-|
--7--7-7-7-7--7-5-5--5-5-5--5-|--2--2-2-2-2--2-7-7--7----L-|
--5--5-5-5-5--5-3-3--3-3-3--3-|--2--2-2-2-2--2-7-7--7----L-|
------------------------------|--0--0-0-0-0--0-5-5--5----L-|


  E  S S S E  S S E  S S E  S    E  S S S E  S S E  S S E  S  
--0--0-0-0-0--0-1-1--1-1-1--1-|--0--0-0-0-0--0-1-1--1-1-1--1-|
--2--2-2-2-2--2-3-3--3-3-3--3-|--2--2-2-2-2--2-3-3--3-3-3--3-|
--2--2-2-2-2--2-3-3--3-3-3--3-|--2--2-2-2-2--2-3-3--3-3-3--3-|
--2--2-2-2-2--2-3-3--3-3-3--3-|--2--2-2-2-2--2-3-3--3-3-3--3-|
--0--0-0-0-0--0-0-0--0-0-0--0-|--0--0-0-0-0--0-0-0--0-0-0--0-|
------------------------------|------------------------------|


  E  S S S E  S S E  S S E  S    E  S S S E  S S E  S S E  S  
--0--0-0-0-0--0-1-1--1-1-1--1-|--0--0-0-0-0--0-1-1--1-1-1--1-|
--2--2-2-2-2--2-3-3--3-3-3--3-|--2--2-2-2-2--2-3-3--3-3-3--3-|
--2--2-2-2-2--2-3-3--3-3-3--3-|--2--2-2-2-2--2-3-3--3-3-3--3-|
--2--2-2-2-2--2-3-3--3-3-3--3-|--2--2-2-2-2--2-3-3--3-3-3--3-|
--0--0-0-0-0--0-0-0--0-0-0--0-|--0--0-0-0-0--0-0-0--0-0-0--0-|
------------------------------|------------------------------|


  E  S S S E  S S E  S S E  S    E  S S S E  S S E  S S E  S  
--0--0-0-0-0--0-1-1--1-1-1--1-|--0--0-0-0-0--0-1-1--1-1-1--1-|
--2--2-2-2-2--2-3-3--3-3-3--3-|--2--2-2-2-2--2-3-3--3-3-3--3-|
--2--2-2-2-2--2-3-3--3-3-3--3-|--2--2-2-2-2--2-3-3--3-3-3--3-|
--2--2-2-2-2--2-3-3--3-3-3--3-|--2--2-2-2-2--2-3-3--3-3-3--3-|
--0--0-0-0-0--0-0-0--0-0-0--0-|--0--0-0-0-0--0-0-0--0-0-0--0-|
------------------------------|------------------------------|


  E  S S S E  S S E  S S E  S    E  S S S E  S S E  S S E  S    
--0--0-0-0-0--0-1-1--1-1-1--1-|--0--0-0-0-0--0-1-1--1-1-1--1--||
--2--2-2-2-2--2-3-3--3-3-3--3-|--2--2-2-2-2--2-3-3--3-3-3--3--||
--2--2-2-2-2--2-3-3--3-3-3--3-|--2--2-2-2-2--2-3-3--3-3-3--3-*||
--2--2-2-2-2--2-3-3--3-3-3--3-|--2--2-2-2-2--2-3-3--3-3-3--3-*||
--0--0-0-0-0--0-0-0--0-0-0--0-|--0--0-0-0-0--0-0-0--0-0-0--0--||
------------------------------|-------------------------------||




Bass 



     W                   E.  S E  E  E.  S E  E     E.  S E  E  E.  S E  E   
G||-------------------|--------------------------|--------------------------|
D||-------------------|--------2-----------3-----|--------2-----------3-----|
A||-------------------|--0---0----0--1---1----1--|--0---0----0--1---1----1--|
E||-------------------|--------------------------|--------------------------|
B||-------------------|--------------------------|--------------------------|


  E.  S E  E  E.  S E  E     E.  S E  E  S S S S S S S S  
--------------------------|------------------------------|
--------2-----------3-----|--------2---------0-2-----3---|
--0---0----0--1---1----1--|--0---0----0--1-3-------1---1-|
--------------------------|------------------------------|
--------------------------|------------------------------|


    E.  S E  E  E.  S E  E     E.  S E  E  E.  S E  E   
|---------------------------|--------------------------|
|*--------2-----------3-----|--------2-----------3-----|
|---0---0----0--1---1----1--|--0---0----0--1---1----1--|
|*--------------------------|--------------------------|
|---------------------------|--------------------------|


  E.  S E  E  E.  S E  E     E.  S E  E  S S S S S S S S  
--------------------------|------------------------------|
--------2-----------3-----|--------2---------0-2-----3---|
--0---0----0--1---1----1--|--0---0----0--1-3-------1---1-|
--------------------------|------------------------------|
--------------------------|------------------------------|


  E.  S E  E  E.  S E  E     E.  S E  E  E.  S E  E   
--------------------------|--------------------------|
--------2-----------3-----|--------2-----------3-----|
--0---0----0--1---1----1--|--0---0----0--1---1----1--|
--------------------------|--------------------------|
--------------------------|--------------------------|


  E.  S E  E  E.  S E  E     E.  S E  E  S S S S S S S S  
--------------------------|------------------------------|
--------2-----------3-----|--------2---------0-2-----3---|
--0---0----0--1---1----1--|--0---0----0--1-3-------1---1-|
--------------------------|------------------------------|
--------------------------|------------------------------|


  E.  S E  E  E.  S E  E     E.  S E  E  E.  S E  E   
--------------------------|--------------------------|
--------2-----------3-----|--------2-----------3-----|
--0---0----0--1---1----1--|--0---0----0--1---1----1--|
--------------------------|--------------------------|
--------------------------|--------------------------|


  E.  S E  E  E.  S E  E     E.  S E  E  S S S S S S S S  
--------------------------|------------------------------|
--------2-----------3-----|--------2---------0-2-----3---|
--0---0----0--1---1----1--|--0---0----0--1-3-------1---1-|
--------------------------|------------------------------|
--------------------------|------------------------------|


  E.  S E  E  E.  S E  E     E.  S E  E  E.  S E  E   
--------------------------|--------------------------|
--------2-----------3-----|--------2-----------3-----|
--0---0----0--1---1----1--|--0---0----0--1---1----1--|
--------------------------|--------------------------|
--------------------------|--------------------------|


  E.  S E  E  E.  S E  E     E.  S E  E  S S S S S S E   
--------------------------|-----------------------------|
--------2-----------3-----|--------2---------0-2---3----|
--0---0----0--1---1----1--|--0---0----0--1-3-----1------|
--------------------------|--------------------------1--|
--------------------------|-----------------------------|


  E.  S E  E  E  E  E  E     E.  S E  E  E  E  E  E   
--------------------------|--------------------------|
--------------------------|--------------------------|
--------------------------|-----------------------0--|
--0---0-0--1--0-----0--1--|--0---0-0--1--0--1--0-----|
-----------------4--------|--------------------------|


  E.  S E  E  E  E  E  E     E.  S E  E  E  S S S S S S  
--------------------------|-----------------------------|
--------------------------|--------------2--1-2---------|
--------------------------|---------------------2-0-----|
--0---0-0--1--0-----0--1--|--0---0-0--1-------------4-1-|
-----------------4--------|-----------------------------|


  E.  S E  E  E  E  E  E     E.  S E  E  E  E  E  E   
--------------------------|--------------------------|
--------------------------|--------------------------|
--------------------------|-----------------------0--|
--0---0-0--1--0-----0--1--|--0---0-0--1--0--1--0-----|
-----------------4--------|--------------------------|


  E.  S E  E  E  E  E  E     E.  S E  E  E  E  E  E     E.  E.  E  E.  E.  E   
--------------------------|--------------------------|------------------------|
--------------------------|--------------------------|------2----------0------|
--------------------------|--------------------------|--0-------0-------------|
--0---0-0--1--0-----0--1--|--0---0-0--1--0--1--3--4--|-------------3-------3--|
-----------------4--------|--------------------------|------------------------|


  E.  E.  E  E.  E.  E     E.  E.  E  E.  E.  E     E.  E.  E  E.  E.  E   
------------------------|------------------------|------------------------|
------------------------|------2----------0------|---------------------2--|
------3----------2------|--0-------0-------------|------3----------2------|
--1-------1--0-------0--|-------------3-------3--|--1-------1--0----------|
------------------------|------------------------|------------------------|


  E.  E.  E  E.  E.  E     E.  E.  E  E.  E.  E     E.  E.  E  E.  E.  E   
------------------------|------------------------|------------------------|
------2----------0------|------------------------|--0-------0-------------|
--0-------0-------------|------3----------2------|------0------3-------3--|
-------------3-------3--|--1-------1--0-------0--|-----------------3------|
------------------------|------------------------|------------------------|


  E.  S S S S S S S S E  S S S    E.  E.  E  E.  E.  E   
-------------------------------|------------------------|
-------------------------2-----|------2----------0------|
------------0-2-0-0---0----2---|--0-------0-------------|
--0---0-0-4------------------4-|-------------3-------3--|
-------------------------------|------------------------|


  E.  E.  E  E.  E.  E     E.  E.  E  E.  E.  E     E.  E.  E  E.  E.  E   
------------------------|------------------------|------------------------|
------------------------|------2----------0------|---------------------2--|
------3----------2------|--0-------0-------------|------3----------2------|
--1-------1--0-------0--|-------------3-------3--|--1-------1--0----------|
------------------------|------------------------|------------------------|


  E.  E.  E  E.  E.  E     E.  E.  E  E.  E.  E     E.  E.  E  E.  E.  E   
------------------------|------------------------|------------------------|
------2----------0------|------------------------|--0-------0-------------|
--0-------0-------------|------3----------2------|------0------3-------3--|
-------------3-------3--|--1-------1--0-------0--|-----------------3------|
------------------------|------------------------|------------------------|


  E.  S S S S S S S S E  S S S    E.  S E  E  E.  S E  E   
-------------------------------|--------------------------|
-------------------------2-----|--------2-----------3-----|
------------0-2-0-0---0----2---|--0---0----0--1---1----1--|
--0---0-0-4------------------4-|--------------------------|
-------------------------------|--------------------------|


  E.  S E  E  E.  S E  E     E.  S E  E  E.  S E  E   
--------------------------|--------------------------|
--------2-----------3-----|--------2-----------3-----|
--0---0----0--1---1----1--|--0---0----0--1---1----1--|
--------------------------|--------------------------|
--------------------------|--------------------------|


  E.  S E  E  S S S S S S S S    E.  S E  E  E.  S E  E   
------------------------------|--------------------------|
--------2-----2-3-2-3-3-2-----|--------2-----------3-----|
--0---0----0--------------2---|--0---0----0--1---1----1--|
----------------------------4-|--------------------------|
------------------------------|--------------------------|


  E.  S E  E  E.  S E  E     E.  S E  E  E.  S E  E   
--------------------------|--------------------------|
--------2-----------3-----|--------2-----------3-----|
--0---0----0--1---1----1--|--0---0----0--1---1----1--|
--------------------------|--------------------------|
--------------------------|--------------------------|


  E.  S E  E  S S S S S S S S    
-------------------------------||
--------2---------0-2-----3---*||
--0---0----0--1-3-------1---1--||
------------------------------*||
-------------------------------||
Login or Register to remove this ad.