Fragrant Plants (Touhou 10.5: Scarlet Weather Rhapsody) Guitar Tab

Submitted: Mar 12, 2016 by Bessem

5
Average: 5 (2 votes)
Download | Listen
Game: Touhou 10.5: Scarlet Weather Rhapsody
Composer(s): ZUN
Style: Arrangement, Fingerstyle
Series: Touhou

This song is also called Forest of Magic Theme

AutoScroll: Slow | Medium | Fast
Piste 1 (Capo 2)



     >               >                  >               >                
     S S S S S S S S S S S S S S S S    S S S S S S S S S S S S S S S S  
E||----------0---------------5-------|----------0---------------0-------|
B||--------1---1-----------6---6-----|--------1---1-----------0---0-----|
G||------2-------2-------7-------7---|------2-------2-------1-------1---|
D||----2-----------2---7-----------7-|----2-----------2---2-----------2-|
A||--0---------------5---------------|--0-------------------------------|
E||----------------------------------|------------------0---------------|


  >               >                  >               >                
  S S S S S S S S S S S S S S S S    S S S S S S S S S S S S S S S S  
----------0---------------5-------|----------0---------------0-------|
--------1---1-----------6---6-----|--------1---1-----------0---0-----|
------2-------2-------7-------7---|------2-------2-------1-------1---|
----2-----------2---7-----------7-|----2-----------2---2-----------2-|
--0---------------5---------------|--0-------------------------------|
----------------------------------|------------------0---------------|


    E  E  E  S S  E  E  E  S S     E  E  E  S  S E  E  Q     
|---------0---------------------|---------------------------|
|------1-------1h-3--1--0----0h-|--1-------------0----------|
|*--2--------2-------------2----|-----2--2--1h-2----1-------|
|*----------------0-----0-------|----------------------2----|
|---0-----0---------------------|--0-----0------------------|
|-------------------------------|----------------0-----0----|


                                       >           >      
  E  E  E  S S E  E  E  E     E  S  S  E  E  E  E  E  E   
---------------1--0--------|-----------------------------|
--------1----1-------3--1--|--1--0h-1p-0-----1--0--0-----|
-----2-----2---------------|--------------2--------------|
--2------------0-----0-----|--------------------------2--|
--0-----0------------------|--0-----0--------------------|
---------------------------|-----------------0-----0-----|


  E  E  E  S S  E  E  E  S S     E  E  E  S  S E  E  Q     
--------0---------------------|---------------------------|
-----1-------1h-3--1--0----0h-|--1-------------0----------|
--2--------2-------------2----|-----2--2--1h-2----1-------|
----------------0-----0-------|----------------------2----|
--0-----0---------------------|--0-----0------------------|
------------------------------|----------------0-----0----|


               >                                           
  E  E  E  S S E  E  E  E     E  S S E  E   E  E   Q       
---------------1--0--------|-----------------------------||
--------1----1-------3--1--|--1----0---------------------||
-----2-----2---------------|-----2---2--1h--2--1h--2----*||
--2------------0-----0-----|----------------------------*||
--0-----0------------------|--0----0--------0------0-----||
---------------------------|------------0------0---------||


                                                    >      
  E  S S E  E   E  E  E  E     E  E  E  S  S  E  E  E  E   
-------------------------0--|--1--3--5--4h-5p-4--5--7-----|
--1----0--------------------|--------------------------5--|
-----2---2--1h--2--1--2-----|-----------------------------|
-------------------------2--|--0-----0--------------------|
--0----0--------0-----0-----|-----------------------------|
------------0------0--------|-----------------0-----0-----|


     |--3--|                                                   
  E  S  S  S E  S  S E  E  Q       E  E  E  S  S  E  E  E  E   
--8--7h-8p-7-5--4h-5-4----------|-----0--1--0h-1p-0--4--5--7--|
------------------------5--5----|--3--------------------------|
--------------------------------|-----------------------------|
--0----------0------------------|--0-----0--------------------|
--------------------------------|-----------------------------|
---------------------0-----0----|-----------------0-----0-----|


  E  E   E  E  S  S  E  E  E     E  E  E  S  S  E  E  E  E   
--8--7--10--8--7h-8p-5--4--0--|--1--3--5--4h-5p-4--5--7-----|
------------------------------|--------------------------5--|
------------------------------|-----------------------------|
--0------0--------------------|--0-----0--------------------|
------------------------------|-----------------------------|
---------------0--------0-----|-----------------0-----0-----|


     |--3--|                                                
  E  S  S  S E  S S E  E  Q       E  E  E  S S E  E  E  E   
--8--7h-8p-7-5--4-5-7----------|-----0--1--0-1-0--4--5--7--|
-----------------------5--5----|--3------------------------|
-------------------------------|---------------------------|
--0----------0-----------------|--0-----0------------------|
-------------------------------|---------------------------|
--------------------0-----0----|---------------0-----0-----|


                                   ^                    ^                       
  E  E   E  E  S  S E  E  S  S     W                    H.           S S  S S   
--8--0--10--8--7h-8-5--4--4h-5s-|--7----------------|--12----------------------|
--------------------------------|--9----------------|---9----------------------|
--------------------------------|--9----------------|---9-------------------0h-|
--0------0----------------------|--9----------------|---9--------------0h-2----|
---------------6-------6--------|--7----------------|----------------3---------|
--------------------------------|-------------------|---0----------------------|


  E  E  E  E   E  E  E  E     E   E  E  E   E  E  E   E   
---------------------------|-----------------------------|
------------------------5--|--3h--5--1-------------------|
--2--------0h--2--0--2-----|------------0h--2-----2p--0--|
---------------------------|-------------------2---------|
-----3---------------------|--0------0------0-----3------|
--1-----1------3-----3-----|-----------------------------|


  E  E  E  E   E  E  E  E     E  E  E   E  E  E  E  E   
---------------------------|--3--5---------------------|
------------------------5--|--------5p--3--5-----3--1--|
--2--------0h--2--0--------|------------------2--------|
---------------------------|---------------------------|
-----3---------------------|--0-----0------0-----3-----|
--1-----1------3-----3-----|------------------------3--|


  E  E  E  E  E  E  E  S S     E  E  E  E  E  E  E  E   
----------------------------|--------------------------|
-------------------------0h-|--1-----0-----------------|
--2--------2--2--------2----|--------------2--------2--|
--------3-----------0-------|-----------0--------2-----|
-----3-----------2----------|-----3-----------3--------|
--1-----------3-------------|--1-----3-----5-----------|


  S  S E  E  S  S E  E  S  S S S    S  S E  E  S  S E  E  S S  S S   
---------------------------------|----------------------------------|
---------------------------------|----------------------------------|
--2p-0-2--2--2p-0-2--2--2p-0-2-5-|--2p-0-2--2--2p-0-2--2--0-0----0h-|
---------------------------------|--------------------------0h-2----|
---------------------------------|--0-------0-------0-----3---------|
--1-------1-------3-----3--------|----------------------------------|


  E  E  E  E   E  E  E  E     E   E  E  E   E  E  E  E   
---------------------------|----------------------------|
------------------------5--|--3h--5--1------------------|
--2--------0h--2--0--2-----|------------0h--2-----2--0--|
---------------------------|-------------------2--------|
-----3---------------------|--0------0------0-----3-----|
--1-----1------3-----3-----|----------------------------|


  E  E  E  E   E  E  E  E     E  E  E   E  E  E  E   E   
---------------------------|--3--5----------------------|
------------------------5--|--------5p--3--5-----3p--1--|
--2--------0h--2--0--------|------------------2---------|
---------------------------|----------------------------|
-----3---------------------|--0-----0------0-----3------|
--1-----1------3-----3-----|-------------------------3--|


  E  E  E  E  E  E  E  S S     E  E  E  E  E  E  E  E   
----------------------------|--------------------------|
-------------------------0h-|--1-----0-----------------|
--2--------2--2--------2----|--------------2--------2--|
--------3-----------0-------|-----------0--------2-----|
-----3-----------2----------|-----3-----------3--------|
--1-----------3-------------|--1-----3-----5-----------|


  S  S E  E  S  S E  E  S  S S S    S  S E  E  S  S E  E  S  S E   
---------------------------------|-----------------------------5--|
---------------------------------|--------------------------------|
--2p-0-2--2--2p-0-2--2--2p-0-2-5-|--2p-0-2--2--2p-0-2--2--2p-0----|
---------------------------------|--------------------------------|
---------------------------------|--0-------0-------0--------0----|
--1-------1-------3-----3--------|--------------------------------|


  E  E  E  E  H          
--------------5--------||
-----------5-----------||
--------2--------------||
-----2-----------------||
--0--------------------||
-----------------------||
Login or Register to remove this ad.