Login or Register to remove this ad.

Mysterious Mountain (Touhou 10: Mountain of Faith) Guitar Tab

Submitted: Sep 10, 2009 by Jacob31593 (Last updated: Sep 10, 2009)

5
Average: 5 (3 votes)
Download | Listen
Game: Touhou 10: Mountain of Faith
Composer(s): ZUN
Style: 2 or more instruments, Arrangement, Transcription
Series: Touhou

This song is also called Aya Syameimaru's Theme

AutoScroll: Slow | Medium | Fast
Mysterious Mountain from Touhou 10: Mountain of Faith
Composed by ZUN
Tabbed by Jacob31593
Sept. 10th 2009

The lead went up to the 31st fret so naturally I have transposed it down one octave. I was too lazy to learn the new fingerings to see if they were doable, but anyone who is able to play this song should be able to find out the fingerings that fit them best.
The rhythm guitar was slightly "arranged" because I cant effectively tune my guitar below drop-c, which is the tuning the second guitar is in. THE LEAD IS IN STANDARD

165 BPM

Lead Guitar

                                     Repeat back to here
     E  E  E  E   E  E  E   E        E  E  E  E  E  E  E   E     E   E  E  E  S S  E  E   E   
E||----------------------------||-----------------------------|------------------------------|
B||----------------------------||-------------8---------------|-----10--------8--------------|
G||------------------9---------||*---------7------------------|--9------7--9----9------------|
D||-----------7--10------------||*------9--------------7--10--|-------------------10--9------|
A||--------7-------------------||---10--------------7---------|--------------------------10--|
E||-----8------------------10--||-----------------------------|------------------------------|


  E  E  E  E   E  E  E   E      E  E  E  E  E  E  E   E     E   E  E  E  S S  E  E   E   
----------------------------|----------------------------|------------------------------|
----------------------------|------------8---------------|-----10--------8--------------|
------------------9---------|---------7------------------|--9------7--9----9------------|
-----------7--10------------|------9--------------7--10--|-------------------10--9------|
--------7-------------------|--10--------------7---------|--------------------------10--|
-----8------------------10--|----------------------------|------------------------------|


  E  E  E  E  E  E  E  E     E  E  E  E  E  E  E  E     E  E  E  E  E  E  E   E   
--------------------------|--------------------------|---------------------------|
--------------------------|--------------------------|--------------8------------|
--------------------------|--------------------------|--------7--9-----7---------|
--7-----7-----7-----5-----|--7-----7-----------7-----|--7-----------------9------|
--7-----7-----7-----5-----|--7-----7-----8-----7-----|--7--------------------10--|
--------------------------|--------------8-----------|---------------------------|


  E  E  E  E   E  E  E   E      E   E  E   E  E  E  E  E      E  E  E  E  S  S  E   E   E   
----------------------------|-----------------------------|--------------------------------|
----------------------------|-------------10-----------7--|--10-----7----------------------|
------------------9---------|----------7------------7-----|------7-----7-------------------|
-----------7--10------------|------10------------7--------|---------------9-10-------------|
--------7-------------------|--10-------------------------|--------------------10--12------|
-----8------------------10--|-----------------------------|----------------------------10--|


  Q    E  E   E  E  Q        Q     Q     Q    E   E     E   E  Q    Q    E  E   
-------------------------|---------------------------|-------------------------|
-------------------------|---------------------------|-------------------------|
--9--------------9--7----|---------------------------|-------------------------|
-------7--9--10----------|--------12----10----9--10--|--9-----------7----7-----|
-------------------------|--10-----------------------|-----10--7---------------|
-------------------------|---------------------------|-------------------------|


  Q    E   E  E  E  Q       Q    E  E   E  E   Q       Q    H.              Q    E  E   E  E  Q     
-------------------------|--------------------------|--------------------|-------------------------|
-----------------8--7----|--------------------------|--------------------|-------------------------|
--9-----------9----------|--7----7--9---------------|--------------------|--9--------------9--7----|
-------7--10-------------|-------------10--9--------|--9----7------------|-------7--9--10----------|
-------------------------|--------------------10----|--------------------|-------------------------|
-------------------------|--------------------------|--------------------|-------------------------|


   Q     Q     Q    E   E     E   E  Q    Q    E  E     Q    E   E  E  E  Q     
---------------------------|-------------------------|-------------------------|
---------------------------|-------------------------|-----------------8--7----|
---------------------------|-------------------------|--9-----------9----------|
--------12----10----9--10--|--9-----------7----7-----|-------7--10-------------|
--10-----------------------|-----10--7---------------|-------------------------|
---------------------------|-------------------------|-------------------------|


                                                                            |-3-|                   
  Q    E  E   E  E   Q       Q    H.              Q    H        E  E     E  S S S E   E  Q    Q     
--------------------------|--------------------|----------------------|----------------------------|
--------------------------|--------------------|----------------------|--8-------------------------|
--7----7--9---------------|--------------------|-------9--------7--9--|-----7-9-7-------------9----|
-------------10--9--------|--9----7------------|--7-------------------|-----------9------7---------|
--------------------10----|--------------------|----------------------|--------------10------------|
--------------------------|--------------------|----------------------|----------------------------|


                                                          |--3--|                                        
  Q     Q     H            Q     H         E   E      E   S  S  S  E   E   H           W                 
-------------12--------|--------12--------10--12--|--15-----12-10-------------------|-------------------|
-------10--------------|--10----------------------|------15-------12------10--------|--L----------------|
-----------------------|--------------------------|-------------------12------------|-------------------|
-----------------------|--------------------------|---------------------------------|-------------------|
-----------------------|--------------------------|---------------------------------|-------------------|
-----------------------|--------------------------|---------------------------------|-------------------|


                            |-3-|                                                                      
  Q    H        E  E     E  S S S E   E  Q    Q       Q     Q     H            Q     H         E   E   
----------------------|----------------------------|--L----------12--------|--------12--------10--12--|
----------------------|--8-------------------------|-------10--------------|--10----------------------|
-------9--------7--9--|-----7-9-7-------------9----|-----------------------|--------------------------|
--7-------------------|-----------9------7---------|-----------------------|--------------------------|
----------------------|--------------10------------|-----------------------|--------------------------|
----------------------|----------------------------|-----------------------|--------------------------|


       |--3--|                                                                           
   E   S  S  S  E   E   H           Q     Q     Q     Q        Q.      S S  E  Q     E   
--15-----12-10-------------------|-------------------------|----------------------------|
------15-------12----------------|-------------------------|----------------------------|
-------------------12--13--------|--L----------------------|----------------------------|
---------------------------------|-------------------------|-------------9-11--9----11--|
---------------------------------|-------14----12----11----|--12------12----------------|
---------------------------------|-------16----16----16----|----------------------------|


                       |--3-|                                                        
   Q.      S  S E   E  S  S S E      E.  E.   E  E.  E.  E      Q.      E  H         
---------------------------------|--------------------------|-----------------------|
----------------9--10--9-10-9----|-------9---10--9----------|--------------7--------|
-------------11---------------9--|--11---------------9---7--|----------11-----------|
--11------11---------------------|--------------------------|--11-------------------|
---------------------------------|--------------------------|-----------------------|
---------------------------------|--------------------------|-----------------------|


  H        E  E  E  E      E.  E.  E  E.   E.  E      E.  E.  E   S S  S  S  S  S  S  S  
-----------------------|--------------------------|-------------------------------------|
-----------------------|--------------------------|-------------------------------------|
--7--------L--7--9--7--|--------------------------|-------------------------------------|
-----------------------|--11---9---7--7-----------|-------7---9--11-9-11-12-14-11-12-14-|
-----------------------|------------------11---9--|--11---------------------------------|
-----------------------|--------------------------|-------------------------------------|


                                                                                            |--3--|      
   E   S S  E   S S  E   S S  Q        Q.      S  S  E   Q     E      Q.      S  S  E   E   S  S  S  E   
-----------------------------------|------------------------------|-------------14-16--17--16-17-16-----|
-----------------------------12----|--10------10-12-14--12----14--|--14------14---------------------17--|
--10-------11-------13-------------|------------------------------|-------------------------------------|
------11-------11-------11---------|------------------------------|-------------------------------------|
-----------------------------------|------------------------------|-------------------------------------|
-----------------------------------|------------------------------|-------------------------------------|


   E.   E.   E   E.   E.   E      Q.      E   H            H        E   E   E   E   
--14---16---17--16------------|----------14--14--------|---------------------------|
---------------------17---15--|--14--------------------|--15--------L--15--17--15--|
------------------------------|------------------------|---------------------------|
------------------------------|------------------------|---------------------------|
------------------------------|------------------------|---------------------------|
------------------------------|------------------------|---------------------------|


   E.   E.   E   E.   E.   E      E.   E.   E   S  S  S  S  S  S  S  S  
------------------------------|----------------------------------------|
--14--------------------------|------------12--14-12-14-15-17-14-15-17-|
-------16---14--14------------|--13---14-------------------------------|
---------------------18---16--|----------------------------------------|
------------------------------|----------------------------------------|
------------------------------|----------------------------------------|


   E   S S  E   S S  E   S S  Q        W                 Repeat                                        
--13-------14-------16-------19----|--17-----------------|
------14-------14-------14---------|---------------------|
-----------------------------------|--------------------*|
-----------------------------------|--------------------*|
-----------------------------------|---------------------|
-----------------------------------|---------------------|




Duration Legend
---------------
W - whole
H - half
Q - quarter
E - 8th
S - 16th
|-n-|  - n-tuplets


Tablature Legend
----------------
L - tied note


Rhythm Guitar


                            Repeat back to here                       PM   PM   PM   PM                          
     H.           Q         H        H           Q    H.              Q    Q    Q    Q     
D||--------------------||---------------------|--------------------|----------------------|
A||--------------------||---------------------|--------------------|----------------------|
F||--------------------||*--------------------|--------------------|----------------------|
C||--9------------7----||*--L--------5--------|--L----7------------|--9----9----9----7----|
G||--9------------7----||---L--------5--------|--L----7------------|--9----9----9----7----|
C||--9------------7----||---L--------5--------|--L----7------------|--9----9----9----7----|


  PM   PM   PM   PM      PM   PM   PM   PM      PM   PM   PM   PM      PM   PM   PM   PM    
  Q    Q    Q    Q       Q    Q    Q    Q       Q    Q    Q    Q       Q    Q    Q    Q     
----------------------|----------------------|----------------------|----------------------|
----------------------|----------------------|----------------------|----------------------|
----------------------|----------------------|----------------------|----------------------|
--7----7----5----5----|--5----7----7----7----|--9----9----9----7----|--7----7----5----5----|
--7----7----5----5----|--5----7----7----7----|--9----9----9----7----|--7----7----5----5----|
--7----7----5----5----|--5----7----7----7----|--9----9----9----7----|--7----7----5----5----|


  PM   PM   PM   PM      PM   PM   PM   PM      PM   PM   PM                   PM   PM    
  Q    Q    Q    Q       Q    Q    Q    Q       Q    Q    H           H        Q    Q     
----------------------|----------------------|---------------------|---------------------|
----------------------|----------------------|---------------------|---------------------|
----------------------|----------------------|---------------------|---------------------|
--5----7----7----7----|--9----9----9----7----|--7----7----5--------|--L--------7----7----|
--5----7----7----7----|--9----9----9----7----|--7----7----5--------|--L--------7----7----|
--5----7----7----7----|--9----9----9----7----|--7----7----5--------|--L--------7----7----|


  PM   PM   PM   PM      PM   PM   PM   PM      PM   PM   PM   PM      PM   PM   PM   PM    
  Q    Q    Q    Q       Q    Q    Q    Q       Q    Q    Q    Q       Q    Q    Q    Q     
----------------------|----------------------|----------------------|----------------------|
----------------------|----------------------|----------------------|----------------------|
----------------------|----------------------|----------------------|----------------------|
--9----9----9----7----|--7----7----5----5----|--5----7----7----7----|--9----9----9----7----|
--9----9----9----7----|--7----7----5----5----|--5----7----7----7----|--9----9----9----7----|
--9----9----9----7----|--7----7----5----5----|--5----7----7----7----|--9----9----9----7----|


  PM   PM   PM   PM      PM                   PM   PM   PM   PM      PM   PM   PM   PM    
  Q    Q    Q    Q       Q    H.              Q    Q    Q    Q       Q    Q    Q    Q     
----------------------|--------------------|----------------------|----------------------|
----------------------|--------------------|----------------------|----------------------|
----------------------|--------------------|----------------------|----------------------|
--7----7----5----7----|--9----7------------|--9----9----9----7----|--7----7----5----5----|
--7----7----5----7----|--9----7------------|--9----9----9----7----|--7----7----5----5----|
--7----7----5----7----|--9----7------------|--9----9----9----7----|--7----7----5----5----|


  PM   PM   PM   PM      PM   PM   PM   PM      PM   PM   PM   PM      PM                 
  Q    Q    Q    Q       Q    Q    Q    Q       Q    Q    Q    Q       Q    H.            
----------------------|----------------------|----------------------|--------------------|
----------------------|----------------------|----------------------|--------------------|
----------------------|----------------------|----------------------|--------------------|
--5----7----7----7----|--9----9----9----7----|--7----7----5----7----|--9----7------------|
--5----7----7----7----|--9----9----9----7----|--7----7----5----7----|--9----7------------|
--5----7----7----7----|--9----9----9----7----|--7----7----5----7----|--9----7------------|


  Q    Q    E  E  Q       Q    E  E  Q    Q       E  E  Q    Q    E  E     Q    Q    E  E  Q     
-----------------------|-----------------------|------------------------|-----------------------|
-----------------------|-----------------------|------------------------|-----------------------|
-----------------------|-----------------------|------------------------|-----------------------|
--5----5----5-----7----|--7----7-----9----9----|--9-----9----9----9-----|--5----5----5-----7----|
--5----5----5-----7----|--7----7-----9----9----|--9-----9----9----9-----|--5----5----5-----7----|
--5----5----5-----7----|--7----7-----9----9----|--9-----9----9----9-----|--5----5----5-----7----|


  Q    E  E  Q    Q       E  E  Q    Q    E  E     Q    Q    E  E  Q       Q    E  E  Q    Q     
-----------------------|------------------------|-----------------------|-----------------------|
-----------------------|------------------------|-----------------------|-----------------------|
-----------------------|------------------------|-----------------------|-----------------------|
--7----7-----9----9----|--9-----9----9----9-----|--5----5----5-----7----|--7----7-----9----9----|
--7----7-----9----9----|--9-----9----9----9-----|--5----5----5-----7----|--7----7-----9----9----|
--7----7-----9----9----|--9-----9----9----9-----|--5----5----5-----7----|--7----7-----9----9----|


                                                                          PM   PM   PM    
  E  E  Q    Q    E  E     H.           Q       H        H           Q    Q    Q    Q     
------------------------|--------------------|--------------------|----------------------|
------------------------|--------------------|--------------------|----------------------|
------------------------|--------------------|--------------------|----------------------|
--9-----9----9----9-----|--5------------7----|--L--------4--------|--L----9----9----9----|
--9-----9----9----9-----|--5------------7----|--L--------4--------|--L----9----9----9----|
--9-----9----9----9-----|--5------------7----|--L--------4--------|--L----9----9----9----|


  E  E  E  E  E  E  E  E     E  E  E  E  E  E  E  E     E  E  E  E  E  E  E  E   
--------------------------|--------------------------|--------------------------|
--------------------------|--------------------------|--------------------------|
--------------------------|--------------------------|--------------------------|
--9--9--9--9--9--9--9--9--|--4--4--4--4--4--4--4--4--|--5--5--5--5--5--5--5--5--|
--9--9--9--9--9--9--9--9--|--4--4--4--4--4--4--4--4--|--5--5--5--5--5--5--5--5--|
--9--9--9--9--9--9--9--9--|--4--4--4--4--4--4--4--4--|--5--5--5--5--5--5--5--5--|


  E  E  E  E  E  E  E  E     E  E  E  E  E  E  E  E     E  E  E  E  E  E  E  E   
--------------------------|--------------------------|--------------------------|
--------------------------|--------------------------|--------------------------|
--------------------------|--------------------------|--------------------------|
--4--4--4--4--4--4--4--4--|--2--2--2--2--2--2--2--2--|--0--0--0--0--0--0--0--0--|
--4--4--4--4--4--4--4--4--|--2--2--2--2--2--2--2--2--|--0--0--0--0--0--0--0--0--|
--4--4--4--4--4--4--4--4--|--2--2--2--2--2--2--2--2--|--0--0--0--0--0--0--0--0--|


  E  E  E  E  E  E  E  E     E  E  E  E  E  E  E  E     E  E  E  E  E  E  E  E   
--------------------------|--------------------------|--------------------------|
--------------------------|--------------------------|--------------------------|
--------------------------|--------------------------|--------------------------|
--2--2--2--2--2--2--2--2--|--4--4--4--4--4--4--4--4--|--9--9--9--9--9--9--9--9--|
--2--2--2--2--2--2--2--2--|--4--4--4--4--4--4--4--4--|--9--9--9--9--9--9--9--9--|
--2--2--2--2--2--2--2--2--|--4--4--4--4--4--4--4--4--|--9--9--9--9--9--9--9--9--|


  E  E  E  E  E  E  E  E     E  E  E  E  E  E  E  E     E  E  E  E  E  E  E  E   
--------------------------|--------------------------|--------------------------|
--------------------------|--------------------------|--------------------------|
--------------------------|--------------------------|--------------------------|
--4--4--4--4--4--4--4--4--|--5--5--5--5--5--5--5--5--|--4--4--4--4--4--4--4--4--|
--4--4--4--4--4--4--4--4--|--5--5--5--5--5--5--5--5--|--4--4--4--4--4--4--4--4--|
--4--4--4--4--4--4--4--4--|--5--5--5--5--5--5--5--5--|--4--4--4--4--4--4--4--4--|


  E  E  E  E  E  E  E  E     E  E  E  E  E  E  E  E     E  E  E  E  E  E  E  E   
--------------------------|--------------------------|--------------------------|
--------------------------|--------------------------|--------------------------|
--------------------------|--------------------------|--------------------------|
--2--2--2--2--2--2--2--2--|--0--0--0--0--0--0--0--0--|--2--2--2--2--2--2--2--2--|
--2--2--2--2--2--2--2--2--|--0--0--0--0--0--0--0--0--|--2--2--2--2--2--2--2--2--|
--2--2--2--2--2--2--2--2--|--0--0--0--0--0--0--0--0--|--2--2--2--2--2--2--2--2--|


  E  E  E  E  E  E  E  E     H.           Q     Repeat                                                
--------------------------|---------------------|
--------------------------|---------------------|
--------------------------|--------------------*|
--4--4--4--4--4--4--4--4--|--9------------7----*|
--4--4--4--4--4--4--4--4--|--9------------7-----|
--4--4--4--4--4--4--4--4--|--9------------7-----|



Duration Legend
---------------
W - whole
H - half
Q - quarter
E - 8th


Tablature Legend
----------------
L - tied note
PM - Palm Mute
Login or Register to remove this ad.

3 comments on Mysterious Mountain

The note rings out because of

The note rings out because of the tied note at the start of measure 33. That tied note needs to be a 9 on 3rd string, not a 10 on 1st string.

ah thanks again plane

ah thanks again plane

FINALLY there are touhou

FINALLY there are touhou songs!

hey, tab Native Faith! PLEASE