Faith is for the Transient People (Touhou 10: Mountain of Faith) Guitar Tab

Submitted: Nov 28, 2009 by Jacob31593 (Last updated: Nov 28, 2009)

5
Average: 5 (2 votes)
Download | Listen
Game: Touhou 10: Mountain of Faith
Composer(s): ZUN
Style: 2 or more instruments, Alternate picking, Artificial harmonics, Pinch harmonics, Sweep picking, Transcription
Series: Touhou

This song is also called Sanae Kotiya's Theme

AutoScroll: Slow | Medium | Fast

Faith is for the Transient People from Touhou 10: Mountain of Faith
Composed by ZUN
Tabbed by Jacob31593
Nov. 28th 2009

Tabbed all but the bass.
164 BPM

Guitar 1
                                                                        H         E   Q     E   
E||-------|-------|-------|-------|-------|-------|-------|-------||-----------------------12--|
B||-------|-------|-------|-------|-------|-------|-------|-------||---14--------14--16--------|
G||-------|-------|-------|-------|-------|-------|-------|-------||*--------------------------|
D||-------|-------|-------|-------|-------|-------|-------|-------||*--------------------------|
A||-------|-------|-------|-------|-------|-------|-------|-------||---------------------------|
E||-------|-------|-------|-------|-------|-------|-------|-------||---------------------------|


   H         E   Q     E      Q     E   Q     E   Q       H.            Q     
--12--------12--14----16--|----------------------------|---------------------|
--------------------------|--16----17--16--------------|---------------------|
--------------------------|------------------16--13----|--L------------13----|
--------------------------|----------------------------|---------------------|
--------------------------|----------------------------|---------------------|
--------------------------|----------------------------|---------------------|


   H         E   Q     E      H         E   Q     E      Q     Q     E   Q     E   
--------------------------|----------------11----12--|--------------11--12----14--|
----------------12----14--|--14--------14------------|--13----14------------------|
--14--------14------------|--------------------------|----------------------------|
--------------------------|--------------------------|----------------------------|
--------------------------|--------------------------|----------------------------|
--------------------------|--------------------------|----------------------------|


   W                    H         E   Q     E      H         E   Q     E   
--11----------------|----------------------12--|--12--------12--14----16--|
--------------------|--14--------14--16--------|--------------------------|
--------------------|--------------------------|--------------------------|
--------------------|--------------------------|--------------------------|
--------------------|--------------------------|--------------------------|
--------------------|--------------------------|--------------------------|


   Q     E   Q     E   Q       H.            Q        H         E   Q     E   
----------------------------|---------------------|--------------------------|
--16----17--16--------------|---------------------|----------------12----14--|
------------------16--13----|--L------------13----|--14--------14------------|
----------------------------|---------------------|--------------------------|
----------------------------|---------------------|--------------------------|
----------------------------|---------------------|--------------------------|


   H         E   Q     E      Q     Q     E   Q     E      W                 
----------------11----12--|--------------11--12----14--|--16----------------|
--14--------14------------|--13----14------------------|--------------------|
--------------------------|----------------------------|--------------------|
--------------------------|----------------------------|--------------------|
--------------------------|----------------------------|--------------------|
--------------------------|----------------------------|--------------------|


   H         E.   E.   E      Q     E   Q     E   Q        H         E.   E.   E   
--------------------------|----------------------------|--------------------------|
-----------------12---14--|----------------------------|--------------------------|
--14--------14------------|--13----14--13--------------|--11--------11---13---14--|
--------------------------|------------------14--11----|--------------------------|
--------------------------|----------------------------|--------------------------|
--------------------------|----------------------------|--------------------------|


   Q     Q     E.   E.   E     H         E.   E.   E      H         E.   E.   E   
----------------------------|-------------------------|----------------------12--|
--------12----10--------10--|--L--------10---12---14--|--14--------14---16-------|
-------------------13-------|-------------------------|--------------------------|
--14------------------------|-------------------------|--------------------------|
----------------------------|-------------------------|--------------------------|
----------------------------|-------------------------|--------------------------|


   Q     Q     Q     Q        E.   E.   E   Q     E.   S     H         E    Q.      
--12----11----------12----|--14---14---14--16s----8s---3-|------------11s--12------|
--------------14----------|------------------------------|-------------------------|
--------------------------|------------------------------|--13---------------------|
--------------------------|------------------------------|-------------------------|
--------------------------|------------------------------|-------------------------|
--------------------------|------------------------------|-------------------------|


   Q     Q     H            H         E    Q     S   S      Q     Q    H         
--11--------------------|------------12s--14----12h-14h-|--12----11----9--------|
--------12--------------|-------------------------------|-----------------------|
--------------11--------|--13---------------------------|-----------------------|
------------------------|-------------------------------|-----------------------|
------------------------|-------------------------------|-----------------------|
------------------------|-------------------------------|-----------------------|


   H         E    Q.         Q     Q     Q     E   E     Q     Q     Q     Q     
------------14s--16------|--14----16----19------------|-------14----16----19----|
--14---------------------|--------------------16--17--|--L----------------------|
-------------------------|----------------------------|-------------------------|
-------------------------|----------------------------|-------------------------|
-------------------------|----------------------------|-------------------------|
-------------------------|----------------------------|-------------------------|


   H         Q     Q        H         E    Q     S  S     Q     E   S  S  Q     Q     
------------------------|------------11s--12----------|------------------------------|
--19--------17----16----|-----------------------16-17-|--16----14-----14-------------|
------------------------|--13-------------------------|------------16----16----------|
------------------------|-----------------------------|------------------------16----|
------------------------|-----------------------------|------------------------------|
------------------------|-----------------------------|------------------------------|


   H         E    E.   S  E      E   E   E   E   H            H         E    Q.      
------------12s--14---12-14--|--12--14--12--11------------|------------14s--16------|
-----------------------------|------------------14--------|--14---------------------|
--13-------------------------|----------------------------|-------------------------|
-----------------------------|----------------------------|-------------------------|
-----------------------------|----------------------------|-------------------------|
-----------------------------|----------------------------|-------------------------|


                                                                      PH                          
   Q     Q     Q     E   E     Q     Q     Q     Q        E.   E.     E   S  S  S  S  S  S  S  S  
--14----16----19------------|-------14----16----19----|--20---23---------24-23-21-20-------------|
--------------------16--17--|--L----------------------|------------<>21--------------------------|
----------------------------|-------------------------|------------------------------21-20-18-17-|
----------------------------|-------------------------|------------------------------------------|
----------------------------|-------------------------|------------------------------------------|
----------------------------|-------------------------|------------------------------------------|


                                        3x
----|----|----|----|----|----|----|-----||
----|----|----|----|----|----|----|-----||
----|----|----|----|----|----|----|----*||
----|----|----|----|----|----|----|----*||
----|----|----|----|----|----|----|-----||
----|----|----|----|----|----|----|-----||




Duration Legend
---------------
W - whole
H - half
Q - quarter
E - 8th
S - 16th
. - note dotted
|-n-|  - n-tuplets


Tablature Legend
----------------
L - tied note
PH - pitch harmonic

Guitar 2
      E  E   E  E   E  E   E  E      E  E   E  E   E  E   E  E      E  E   E  E   E  E   E  E   
E||---------11-----12-----14-----|---------11-----12-----14-----|----------------11-----12-----|
B||--14--------------------------|--14--------------------------|--12-----14-------------------|
G||------------------------------|------------------------------|------------------------------|
D||------------------------------|------------------------------|------------------------------|
A||------------------------------|------------------------------|------------------------------|
E||------------------------------|------------------------------|------------------------------|


   E  E   E  E   E  E   E  E      E  E   E  E  E   S  Q    S     E  E  E  S  E  E.   E  E   
----------------11-----12-----|----------------9-------------|---------9----11-------------|
--12-----14-------------------|--10-----12--------12-10------|--12------------------12-----|
------------------------------|------------------------------|-----------------------------|
------------------------------|------------------------------|-----------------------------|
------------------------------|------------------------------|-----------------------------|
------------------------------|------------------------------|-----------------------------|


                            |-3-|                                        
   E  E   E  E   E  E   E   S S S     E  E   E  E   S  S  S S  S  S  E   
----------------11-----14---------|--12-----11--------------------------|
--13-----14----------------13-9---|----------------14-16-14---13--------|
--------------------------------9-|------------------------------13-----|
----------------------------------|---------------------------------13--|
----------------------------------|-------------------------------------|
----------------------------------|-------------------------------------|


     E  E   E  E   E  E   E  E      E  E   E  E   E  E   E  E      E  E   E  E   E  E   E  E   
|----------11-----12-----14-----|---------11-----12-----14-----|----------------11-----12-----|
|---14--------------------------|--14--------------------------|--12-----14-------------------|
|*------------------------------|------------------------------|------------------------------|
|*------------------------------|------------------------------|------------------------------|
|-------------------------------|------------------------------|------------------------------|
|-------------------------------|------------------------------|------------------------------|


   E  E   E  E   E  E   E  E      E  E   E  E  E   S  Q    S     E  E  E  S  E  E.   E  E   
----------------11-----12-----|----------------9-------------|---------9----11-------------|
--12-----14-------------------|--10-----12--------12-10------|--12------------------12-----|
------------------------------|------------------------------|-----------------------------|
------------------------------|------------------------------|-----------------------------|
------------------------------|------------------------------|-----------------------------|
------------------------------|------------------------------|-----------------------------|


                            |-3-|                                        
   E  E   E  E   E  E   E   S S S     E  E   E  E   S  S  S S  S  S  E   
----------------11-----14---------|--12-----11--------------------------|
--13-----14----------------13-9---|----------------14-16-14---13--------|
--------------------------------9-|------------------------------13-----|
----------------------------------|---------------------------------13--|
----------------------------------|-------------------------------------|
----------------------------------|-------------------------------------|


   E  E   E  E   E  E   E  E      E  E   E  E   E  E   E  E      E  E   E  E   E  E   E  E   
---------11-----12-----14-----|---------11-----12-----14-----|----------------11-----12-----|
--14--------------------------|--14--------------------------|--12-----14-------------------|
------------------------------|------------------------------|------------------------------|
------------------------------|------------------------------|------------------------------|
------------------------------|------------------------------|------------------------------|
------------------------------|------------------------------|------------------------------|


   E  E   E  E   E  E   E  E      E  E   E  E  E   S  Q    S     E  E  E  S  E  E.   E  E   
----------------11-----12-----|----------------9-------------|---------9----11-------------|
--12-----14-------------------|--10-----12--------12-10------|--12------------------12-----|
------------------------------|------------------------------|-----------------------------|
------------------------------|------------------------------|-----------------------------|
------------------------------|------------------------------|-----------------------------|
------------------------------|------------------------------|-----------------------------|


                            |-3-|                                                                
   E  E   E  E   E  E   E   S S S     E  E   E  E   S  S  S S  S  S  E                           
----------------11-----14---------|--12-----11--------------------------|-----|-----|-----|-----|
--13-----14----------------13-9---|----------------14-16-14---13--------|-----|-----|-----|-----|
--------------------------------9-|------------------------------13-----|-----|-----|-----|-----|
----------------------------------|---------------------------------13--|-----|-----|-----|-----|
----------------------------------|-------------------------------------|-----|-----|-----|-----|
----------------------------------|-------------------------------------|-----|-----|-----|-----|


-----|-----|-----|-----|-----|-----|-----|-----|-----|-----|-----|-----|-----|-----|-----|-----|
-----|-----|-----|-----|-----|-----|-----|-----|-----|-----|-----|-----|-----|-----|-----|-----|
-----|-----|-----|-----|-----|-----|-----|-----|-----|-----|-----|-----|-----|-----|-----|-----|
-----|-----|-----|-----|-----|-----|-----|-----|-----|-----|-----|-----|-----|-----|-----|-----|
-----|-----|-----|-----|-----|-----|-----|-----|-----|-----|-----|-----|-----|-----|-----|-----|
-----|-----|-----|-----|-----|-----|-----|-----|-----|-----|-----|-----|-----|-----|-----|-----|


                           E  E   E  E   E  E   E  E      E  E   E  E   E  E   E  E   
-----|-----|-----|-----|---------11-----12-----14-----|---------11-----12-----14-----|
-----|-----|-----|-----|--14--------------------------|--14--------------------------|
-----|-----|-----|-----|------------------------------|------------------------------|
-----|-----|-----|-----|------------------------------|------------------------------|
-----|-----|-----|-----|------------------------------|------------------------------|
-----|-----|-----|-----|------------------------------|------------------------------|


   E  E   E  E   E  E   E  E      E  E   E  E   E  E   E  E      E  E   E  E  E   S  Q    S  
----------------11-----12-----|----------------11-----12-----|----------------9-------------|
--12-----14-------------------|--12-----14-------------------|--10-----12--------12-10------|
------------------------------|------------------------------|------------------------------|
------------------------------|------------------------------|------------------------------|
------------------------------|------------------------------|------------------------------|
------------------------------|------------------------------|------------------------------|


                                                          |-3-|  
   E  E  E  S  E  E.   E  E      E  E   E  E   E  E   E   S S S  
---------9----11-------------|----------------11-----14---------|
--12------------------12-----|--13-----14----------------13-9---|
-----------------------------|--------------------------------9-|
-----------------------------|----------------------------------|
-----------------------------|----------------------------------|
-----------------------------|----------------------------------|


   E  E   E  E   S  S  S S  S  S  E   3x
--12-----11---------------------------||
----------------14-16-14---13---------||
------------------------------13-----*||
---------------------------------13--*||
--------------------------------------||
--------------------------------------||




Duration Legend
---------------
W - whole
H - half
Q - quarter
E - 8th
S - 16th
. - note dotted
|-n-|  - n-tuplets


Guitar 3

E||-------|-------|-------|-------|-------|-------|-------|-------||--------|-------|-------|
B||-------|-------|-------|-------|-------|-------|-------|-------||--------|-------|-------|
G||-------|-------|-------|-------|-------|-------|-------|-------||*-------|-------|-------|
D||-------|-------|-------|-------|-------|-------|-------|-------||*-------|-------|-------|
A||-------|-------|-------|-------|-------|-------|-------|-------||--------|-------|-------|
E||-------|-------|-------|-------|-------|-------|-------|-------||--------|-------|-------|


-------|-------|-------|-------|-------|-------|-------|-------|-------|-------|-------|-------|
-------|-------|-------|-------|-------|-------|-------|-------|-------|-------|-------|-------|
-------|-------|-------|-------|-------|-------|-------|-------|-------|-------|-------|-------|
-------|-------|-------|-------|-------|-------|-------|-------|-------|-------|-------|-------|
-------|-------|-------|-------|-------|-------|-------|-------|-------|-------|-------|-------|
-------|-------|-------|-------|-------|-------|-------|-------|-------|-------|-------|-------|


   S  S  S  S  S  S  S  S  S  S  S  S  S  S  S  S                                               
-----------16----------16----16----16----16-------|----|----|----|----|----|----|----|----|----|
-----13-16-------13-16----16----14----13-------13-|----|----|----|----|----|----|----|----|----|
--13----------13----------------------------13----|----|----|----|----|----|----|----|----|----|
--------------------------------------------------|----|----|----|----|----|----|----|----|----|
--------------------------------------------------|----|----|----|----|----|----|----|----|----|
--------------------------------------------------|----|----|----|----|----|----|----|----|----|


                                                                              W                 
----|----|----|----|----|----|----|----|----|----|----|----|----|----|----|--------------------|
----|----|----|----|----|----|----|----|----|----|----|----|----|----|----|--14----------------|
----|----|----|----|----|----|----|----|----|----|----|----|----|----|----|--------------------|
----|----|----|----|----|----|----|----|----|----|----|----|----|----|----|--------------------|
----|----|----|----|----|----|----|----|----|----|----|----|----|----|----|--------------------|
----|----|----|----|----|----|----|----|----|----|----|----|----|----|----|--------------------|


   W                    W                   W                    W                 
--------------------|--------------------|-------------------|--------------------|
--14----------------|--12----------------|--L----------------|--------------------|
--------------------|--------------------|-------------------|--14----------------|
--------------------|--------------------|-------------------|--------------------|
--------------------|--------------------|-------------------|--------------------|
--------------------|--------------------|-------------------|--------------------|


   W                    W                    S  S  S  S  S  S  S  S  S  S  S  S  S  S  S  S  3x
--------------------|--------------------|-----------16----------16----16----16----16--------||
--------------------|--------------------|-----13-16-------13-16----16----14----13-------13--||
--11----------------|--13----------------|--13----------13----------------------------13----*||
--------------------|--------------------|--------------------------------------------------*||
--------------------|--------------------|---------------------------------------------------||
--------------------|--------------------|---------------------------------------------------||




Duration Legend
---------------
W - whole
H - half
Q - quarter
E - 8th
S - 16th
. - note dotted
|-n-|  - n-tuplets


Tablature Legend
----------------
L - tied note

Guitar 4

      W                    W                   W                   W                 
E||--------------------|--------------------|-------------------|-------------------|
B||--------------------|--------------------|-------------------|-------------------|
G||--------------------|--------------------|-------------------|-------------------|
D||--------------------|--------------------|-------------------|-------------------|
A||--11----------------|--11----------------|--9----------------|--9----------------|
E||---9----------------|---9----------------|--7----------------|--7----------------|


  W                   W                   W                   E  E  E  E  E  S E.  E   
-------------------|-------------------|-------------------|--------------------------|
-------------------|-------------------|-------------------|--------------------------|
-------------------|-------------------|-------------------|--------------------------|
-------------------|-------------------|-------------------|--------------------------|
--7----------------|--4----------------|--6----------------|--6--6--6--6--6--6-6---6--|
--5----------------|--2----------------|--4----------------|--4--4--4--4--4--4-4---4--|


     E   E   E   E   E   S  E.   E      E   E   E   E   E   S  E.   E     E  E  E  E  E  S E.  E   
|-----------------------------------|----------------------------------|--------------------------|
|-----------------------------------|----------------------------------|--------------------------|
|*----------------------------------|----------------------------------|--------------------------|
|*----------------------------------|----------------------------------|--------------------------|
|---11--11--11--11--11--11-11---11--|--11--11--11--11--11--11-11---11--|--9--9--9--9--9--9-9---9--|
|----9---9---9---9---9---9--9----9--|---9---9---9---9---9---9--9----9--|--7--7--7--7--7--7-7---7--|


  E  E  E  E  E  S E.  E     E  E  E  E  E  S E.  E     E  E  E  E  E  S E.  E   
--------------------------|--------------------------|--------------------------|
--------------------------|--------------------------|--------------------------|
--------------------------|--------------------------|--------------------------|
--------------------------|--------------------------|--------------------------|
--9--9--9--9--9--9-9---9--|--7--7--7--7--7--7-7---7--|--4--4--4--4--4--4-4---4--|
--7--7--7--7--7--7-7---7--|--5--5--5--5--5--5-5---5--|--2--2--2--2--2--2-2---2--|


  E  E  E  E  E  S E.  E     E  E  E  E  E  S E.  E      E   E   E   E   E   S  E.   E   
--------------------------|--------------------------|----------------------------------|
--------------------------|--------------------------|----------------------------------|
--------------------------|--------------------------|----------------------------------|
--------------------------|--------------------------|----------------------------------|
--6--6--6--6--6--6-6---6--|--6--6--6--6--6--6-6---6--|--11--11--11--11--11--11-11---11--|
--4--4--4--4--4--4-4---4--|--4--4--4--4--4--4-4---4--|---9---9---9---9---9---9--9----9--|


   E   E   E   E   E   S  E.   E     E  E  E  E  E  S E.  E     E  E  E  E  E  S E.  E   
----------------------------------|--------------------------|--------------------------|
----------------------------------|--------------------------|--------------------------|
----------------------------------|--------------------------|--------------------------|
----------------------------------|--------------------------|--------------------------|
--11--11--11--11--11--11-11---11--|--9--9--9--9--9--9-9---9--|--9--9--9--9--9--9-9---9--|
---9---9---9---9---9---9--9----9--|--7--7--7--7--7--7-7---7--|--7--7--7--7--7--7-7---7--|


  E  E  E  E  E  S E.  E     E  E  E  E  E  S E.  E     E  E  E  E  E  S E.  E   
--------------------------|--------------------------|--------------------------|
--------------------------|--------------------------|--------------------------|
--------------------------|--------------------------|--------------------------|
--------------------------|--------------------------|--------------------------|
--7--7--7--7--7--7-7---7--|--4--4--4--4--4--4-4---4--|--6--6--6--6--6--6-6---6--|
--5--5--5--5--5--5-5---5--|--2--2--2--2--2--2-2---2--|--4--4--4--4--4--4-4---4--|


  E  E  E  E  E  S E.  E     W                   W                   W                 
--------------------------|-------------------|-------------------|-------------------|
--------------------------|-------------------|-------------------|-------------------|
--------------------------|-------------------|-------------------|-------------------|
--------------------------|-------------------|-------------------|-------------------|
--6--6--6--6--6--6-6---6--|--9----------------|--7----------------|--5----------------|
--4--4--4--4--4--4-4---4--|--9----------------|--7----------------|--5----------------|


  W                   E  E  E  E  E  E  E  E      E  E   E  E   E  E   E  E   
-------------------|--------------------------|------------------------------|
-------------------|--------------------------|------------------------------|
-------------------|--------------------------|------------------------------|
-------------------|--------------------------|------------------------------|
--7----------------|--9-----9-----9-----9-----|--12-----12-----12-----12-----|
--7----------------|--9-----9-----9-----9-----|--12-----12-----12-----12-----|


   E  E   E  E   E  E   E  E      W                   Q    Q    Q    Q       Q    Q    Q    Q     
------------------------------|--------------------|----------------------|----------------------|
------------------------------|--------------------|----------------------|----------------------|
------------------------------|--------------------|----------------------|----------------------|
------------------------------|--------------------|----------------------|----------------------|
--14-----14-----14-----14-----|--11----------------|--7----7----7----7----|--9----9----9----9----|
--14-----14-----14-----14-----|--11----------------|--5----5----5----5----|--7----7----7----7----|


  Q    Q    Q    Q       Q    Q     H           Q    Q    Q    Q       Q    Q    Q    Q     
----------------------|----------------------|----------------------|----------------------|
----------------------|----------------------|----------------------|----------------------|
----------------------|----------------------|----------------------|----------------------|
----------------------|----------------------|----------------------|----------------------|
--6----6----6----6----|--7----9----11--------|--4----4----4----4----|--6----6----6----6----|
--4----4----4----4----|--5----7-----9--------|--2----2----2----2----|--4----4----4----4----|


  Q    Q    Q    Q       Q    Q    Q    Q       Q    Q    Q    Q       Q    Q    Q    Q     
----------------------|----------------------|----------------------|----------------------|
----------------------|----------------------|----------------------|----------------------|
----------------------|----------------------|----------------------|----------------------|
----------------------|----------------------|----------------------|----------------------|
--7----7----7----7----|--6----6----6----6----|--7----7----7----7----|--9----9----9----9----|
--5----5----5----5----|--4----4----4----4----|--5----5----5----5----|--7----7----7----7----|


  Q    Q    Q    Q       Q    Q     H           Q    Q    Q    Q       Q    Q    Q    Q     
----------------------|----------------------|----------------------|----------------------|
----------------------|----------------------|----------------------|----------------------|
----------------------|----------------------|----------------------|----------------------|
----------------------|----------------------|----------------------|----------------------|
--6----6----6----6----|--7----9----11--------|--4----4----4----4----|--6----6----6----6----|
--4----4----4----4----|--5----7-----9--------|--2----2----2----2----|--4----4----4----4----|


  Q    Q    Q    Q       Q    Q    Q    Q        W                    W                 
----------------------|----------------------|--------------------|--------------------|
----------------------|----------------------|--------------------|--------------------|
----------------------|----------------------|--------------------|--------------------|
----------------------|----------------------|--------------------|--------------------|
--7----7----7----7----|--6----6----6----6----|--11----------------|--11----------------|
--5----5----5----5----|--4----4----4----4----|---9----------------|---9----------------|


  W                   W                   W                   W                   W                 
-------------------|-------------------|-------------------|-------------------|-------------------|
-------------------|-------------------|-------------------|-------------------|-------------------|
-------------------|-------------------|-------------------|-------------------|-------------------|
-------------------|-------------------|-------------------|-------------------|-------------------|
--9----------------|--9----------------|--7----------------|--4----------------|--6----------------|
--7----------------|--7----------------|--5----------------|--2----------------|--4----------------|


  E  E  E  E  E  S E.  E   3x
---------------------------||
---------------------------||
--------------------------*||
--------------------------*||
--6--6--6--6--6--6-6---6---||
--4--4--4--4--4--4-4---4---||




Duration Legend
---------------
W - whole
H - half
Q - quarter
E - 8th
S - 16th
. - note dotted
|-n-|  - n-tuplets


Tablature Legend
----------------
L - tied note
Login or Register to remove this ad.

2 comments on Faith is for the Transient People

Kotiya...................

Kotiya...................

awesome song, awesome tab

5

awesome song, awesome tab well done